Palomita Cuculi, Antologia (tablatura) (ver 3)

Autor: Anónimo | 43700 visualizaciones



Eh. aqui de nuevo "Richard Alvaro" espero les guste esta cancion

Intro

Percusión y zampoña

   F#m           A                   Bm    C#m                      Bm
e)-2-2-4-5-4-5-7-9--9/12-12-9-9-7-7-5-7---7-9-9/12-12-12-14-12-12-9-7-
B)--2-------------------------------------7-9-------------------------
G)----------------------------------------7-9-------------------------

                  F#m       E       F#m     E       F#m
e)--7-7-7-9-7-5-4-2-----2-5-4---5-4-2---2-5-7---9-7-5--|
B)-----------------------------------------------------|
G)-----------------------------------------------------|

   F#m
e)--------------------14-|
B)-----------------------|
G)-------6-4-6-4---------|
D)-4-6-7---------7-4-----|

  F#m
Cuando el amor se termina ,  A.-7-5-4-2-0--
A                    Bm
el corazón se marchita
                 C#m                        Bm
uno no sabe si creer tus dudas se hacen realidad
                           F#m   E        F#m
te encuentras solo al despertar  hay hayayayay

   F#m
e)--------------------2-|
B)----------------------|
G)-------6-4-6-4--------|
D)-4-6-7---------7-4----|

 F#m
anoche no pude dormir    A.-7-5-4-2-0--
A
en mis sueños estabas tu
                       C#m                       Bm
y ese perfume se impregno en el silencio del dolor
                    F#m    E         F#m
y no lo pude sentir mas   hay hayayayay

   F#m
b)----------------------------5-7-|
g)--------------4-6-4-6.-7-6-7----|
D)-------6-7-6-7------------------|
A)--9-7-9-------------------------|


 D    A   E      F#m
hayayay palomita cuculí
 D    A   E       F#m     E
hayayay ojitos de capuliiiii


Solo: (Rápido)
                    A                         Bm
e.------------9-10-12--14-14-12-12-10-10-9-12-------9-|
B.-----9-10-12-------------------------------9-10-12--|
G.-9-11-----------------------------------------------|
               F#m                           E
e.--------9---------------------------------9---------|
B.-9-10-12-12-10-9-12----------9-10-12-10-12-12-------|
G.-------------------9-------11-----------------------|
                    A                       C#m
e.------------9-10-12--14-14-12-12--------16----------|
B.-----9-10-12--------------------15-15-14--14--------|
G.-9-11-----------------------------------------------|
                   Bm                    F#m      E
e.-14-16-17-19-17-16-17-----17-17-----17-14-------12--|
B.---------------------15-15-----15-15----------12----|
G.--------------------------------------------13------|

Acompañamiento de quena

E-A-Bm-C#m-Bm-F#m-E-F#m-E-F#m

   F#m
e)--------------------2-|
B)----------------------|
G)-------6-4-6-4--------|
D)-4-6-7---------7-4----|

F#m
Oigo muchos pasos allá  A.-7-5-4-2-0--
A                       Bm
creo que viene el interior
                     C#m                        Bm
ahora comprendo que perdí lo que en la vida mas ame
                         F#m   E      F#m
nunca hay  dos lagrimas igual  hayayayay

  F#m
b)----------------------------5-7-|
g)--------------4-6-4-6.-7-6-7----|
D)-------6-7-6-7------------------|
A)--9-7-9-------------------------|


 D    A  E       F#m
hayayay palomita cuculí
 D    A  E        F#m     F#m-F#m
hayayay ojitos de capuli

 A                Bm    D             C#m
canta conmigo guitarra llora conmigo cuculí
A                  Bm                      F#m   E     F#m
aurea tu alas para mi y dime por donde andaras  hay mi amor.

  F#m
b)----------------------------5-7-|
g)--------------4-6-4-6.-7-6-7----|
D)-------6-7-6-7------------------|
A)--9-7-9-------------------------|

 D   A   E       F#m
hayayay palomita cuculi
 D   A   E         F#m
hayayay ojitos de capuliiii


weno no esta ala perfeccion pero cualquier arreglo, duda, critica a mi
                              mail
                 > Richy_161_5@hotmail.com <
                          Lima-Peru
                   Ate-vitarte---Gloria Grande
                           5º.I-F.S.E.





Calificar esta versión:
Aviso: Este fichero es trabajo propio de su transcriptor y representa su interpretación personal de la canción. El material contenido en esta página es para exclusivo uso privado, por lo que se prohibe su reproducción o retransmisión, así como su uso para fines comerciales.
Más versiones de Palomita Cuculi, Antologia
Palomita Cuculi
acordes
Palomita Cuculi
tablatura
Palomita Cuculi (ver 2)
tablatura
Palomita Cuculi (ver 3)
tablatura
Descubre más canciones de Antologia