Palomita Cuculi, Antologia (tablatura)

Autor: Anónimo | 30840 visualizaciones



---------------------------------------------------------
Les presento uno de mis mejores pique. debo confesarles
que el huayno de perú es dificil el pique pero si te sale
que bién , muy avanzado.

Saludos para Maria eduarda
y la gente .


Cusco-PERÚ
CLIK EN CALIDAD
 Saludos  2008
*Stars"
  Antologia:
--------------------------------------------------------


apoyo:

http://www.youtube.com/watch?v=u-vJGPjenSk en todo


veanlo y toquen bién

es que esta musica es chevere de paso, la mejor ,
q toca el fondo de mi.

tiempo de la canción:



inicio:http://www.youtube.com/watch?v=vGUkFw3hqp0


0:25                               0:27
                                   F#m6
e---------------------------------------------
B----------------10----10--12s14--14AV--------
G-11-----11--13-----13------------------------
D-----11--------------------------------------
A-12--11-12--11-------------------------------
E---------------------------------------------


0:29                     0:32    0:34  0:36               0:38
                         Emaj7   C#m                     Bmmej4
e-10s12-12---------------------------*-12-12-12--14-1212-------
B----------14-14--12-12----12--12s14-*-------------------14-12-
G-----------------------14-----------*-------------------------
D------------------------------------*-------------------------
A------------------------------------*-------------------------
E------------------------------------*-------------------------


 0:39                      0:42
                           F#m
e-----------------------------*
B-10s12-12-12--14-12----------*
G-------------------14-13-11--*
D-----------------------------*
A-----------------------------*
E-----------------------------*


 0:45           0:44 0:45
   Emaj7         F#m  C#m               F#m
e---------------------------------------------
B--------------------------------14-----------
G-131413--14-13-11---13-14--16---------16-14--
D---------------------------------------------
A---------------------------14---16----14-12--
E---------------------------------------------
______________________________________________


--mas-rapido--
3segundos                0:50
e-------------------14TA-----
B----------------------------
G-------6---6----------------
D------7--9--9-7-------------
A-9-11-----------9-----------
E----------------------------
______________________________________________________________






 F#mmej4              F#m  F#m6                Bmmej4
Cuando el amor se termina .y el corazon se marchita
                   C#m                       Bmmej4
uno no sabe si perder, tus dudas se hacen realidad te
                         F#m  Emej7         F#m
encuentras solo al despertar  hay hayayayay




 F#mmej4          F#m F#m6                   Bmmej4
anoche no pude dormir. en mis sueños estabas tu
                      C#m                      Bmmej4
y ese perfume se inpergno en los silencios del dolor
                     F#m    Emaj7     F#m6
y no lo pude sentir mas   hay hayayayay




CORO=------------------------------------

 D       F#m6       Emaj7
hayayay palomita cuculi
 D      F#m6        Emaj7
hayayay ojitos de capuli.....(prolongado)entra el pique,

------------------------------------------

nota:sgt,pique dura 20 segundos todo (música peruana)

01:56          01:57 01:58                            2:00
                  F#m6                            C#m
e--------------9-12-*-14-14-12-----------------------------
B-------9-10-12-----*----------15-14-14-14-------12-14-----
G-99-10-------------*-----------------------13-13----------
D-------------------*--------------------------------------
A-------------------*--------------------------------------
E-------------------*--------------------------------------

2:01                  2:02  2:04                      2:05
                       Bmmej4                     Emaj7
e-------------------------*------------------------------
B-------12-14-12----------*--------------------14-11-----
G-13-13----------14-13-11-*-11-11-13-14---11-14----------
D-------------------------*------------------------------
A-------------------------*------------------------------
E-------------------------*-------------------------------
______________________________________________________________


 2:05           2:06 2:07                   2:10
                  F#m6                     C#m
e--------------9-12-*-14-14-12-------16--------
B-------9-10-12-----*----------15-14---14-14---
G-99-10-------------*--------------------------
D-------------------*--------------------------
A-------------------*--------------------------
E-------------------*--------------------------



02:11                                                    2:16
                          Bmmej4              F#m       Emaj7
e-16-16-17--19-17-------17--------17-17-------17-----17----*
B-----------------16-19-----15-15-------15-15----19--------*
G---------------------------------------------------16-----*
D----------------------------------------------------------*
A----------------------------------------------------------*
E----------------------------------------------------------*

=============================================================

Algir0:1,2,3,2,1,2,3,2,1...(cuerda)
H--1---2---3---4
e 12   9  16  19
B 12  10  17  19
G 13  11  18  19

=============================================================

Aqui son 3 guitarras

02:042
   F#m6        Emaj7      C#m      Bmmej4    C#m
     -1-       -2-       -3-      -4-        -3-
e--9s12-10-9----9--------9s12-9----9-10-9----9--
B------------12----10-12--------12-------12-----
G-----------------------------------------------
D-----------------------------------------------
A-----------------------------------------------
E-----------------------------------------------


      Bmmej4              Emaj7  F#m     C#m    F#m  Ema7 F#m
e-9-12-9----------------------------------------------
B--------12-121212--14-12-------------------14---14---
G-------------------------14-13-11--13-14-16---16-----
D-----------------------------------------------------
A-----------------------------------------------------
E-----------------------------------------------------




F#mmej4              F#m F#m6                  Bmmej4
oigo muchos pasos atras . creo que biene el interior
                     C#m
ahora comprendo que perdi lo que en la vida
      Bmmej4                          F#m    Emaj7  F#m
mas ame nunca hay  dos lagrimas  igual  hayayayay


CORO=------------------------------------

 D       F#m6       Emaj7
hayayay palomita cuculi
 D      F#m6        Emaj7
hayayay ojitos de capuli.....(prolongado)entra el pique,

------------------------------------------


F#m  G#m  Am**1 A**1            Emaj7 Bmmej4                C#m
               canta conmigo guitarra ,llora conmigo cuculi
                    Bmmej4                     F#m   E  F#m
aurea tu alas para mi y dime por donde andaras  hayayay.


-------------------------------------------

CORO=------------------------------------

 D       F#m6       Emaj7
hayayay palomita cuculi
 D      F#m6        Emaj7
hayayay ojitos de capuli.....(prolongado)entra el pique,

------------------------------------------

CORO=------------------------------------

 D       F#m6       Emaj7
hayayay palomita cuculi
 D      F#m6        Emaj7
hayayay ojitos de capuli.....(prolongado)entra el pique,

------------------------------------------


< F#m



NOTAS


Cuerda mas delgada-----------e B G D A E -----cuerda mas grave

F#mmej4--------------------  0 2 2 4 4 0
F#m------------------------  2 2 2 4 4 x
Emaj7----------------------  0 0 1 1 2 0
Bmmej4---------------------  0 3 4 4 0 3
C#m------------------------  4 5 6 6 4 4
Am**1----------------------  5 5 5 7 7 5
A**1-----------------------  5 5 6 7 7 5





Calificar esta versión:
Aviso: Este fichero es trabajo propio de su transcriptor y representa su interpretación personal de la canción. El material contenido en esta página es para exclusivo uso privado, por lo que se prohibe su reproducción o retransmisión, así como su uso para fines comerciales.
Más versiones de Palomita Cuculi, Antologia
Palomita Cuculi
acordes
Palomita Cuculi
tablatura
Palomita Cuculi (ver 2)
tablatura
Palomita Cuculi (ver 3)
tablatura
Descubre más canciones de Antologia