Nostalgia, Antologia (tablatura) (ver 3)

Autor: Anónimo | 21414 visualizaciones



Que tal a todos,como pueden ver esta cancion les envio con
mucho esfuerso para toda la gente que le gusta la guitarra.Aqui va:

      Como si el viento adivinara:           de la nostalgia que me embarga
1)---2*------|--------------------4-5-4-2-1-2------------------------|
2)---2*------|-------------------------------------------------------|
3)---2*------|--------------------4-6-4-2-1-2------------------------|
4)---4*------|-------------------------------------------------------|
5)---4*------|-------------------------------------------------------|
6)---2*------|-------------------------------------------------------|

1)----------------------------------|----------------------------------|
2)-2h3-------------2-2h3------------|----------------------------------|
3)----4-4-4h2-----------4-4-4h2-----|2-2h4------------2-2h4------------|
4)-----------4-2-4-------------4-2-4|-----3-3-3h2-2-4------3-3-3h2-2-4-|
5)----------------------------------|------------5----------------5----|

1)----------|
2)----------|
3)----------|
4)----------|
5)--0-1-2---|

los acordes son: Sim, Fa#m, ReM

Son tus recuerdos y están
matándole a mi corazón,
lo peor es que no puedo olvidarte
en la distancia te se esperar
y vuelve mi llanto a caer
abrazando esta mi, soledad
mi vida no tiene razón
sin ti yo no se adonde vooy.

1)-14-------15-|12--17-12-15-14-12-14|-10--9-10-14-12-11-12-9-|
2)-----14-15---|---------------------|---12-------------------|
3)---15--------|--12-----------------|------------------------|

1)-9----9-12-10-9-10-|-10-9---------9---|
2)----11-------------|-----12-11--11-12-|
3)--11---------------|----------11------|

intermedio:  SIm, FA#m, RE 

Como si el viento adivinara
de la nostalgia que me embarga,
solo y frente a este mundo
solo y con todos tus recuerdos
no me resigno a perder tu amor
es mas me niego a olvidarte
sabes no quiero perderte
te amo mil veces, te amo.

1)-14-14-12----14-13-14-14-12-11-12-10-| 1)-----10-14-15-14-15-12-|
2)---------14--------------------------| 2)---12------------------|
3)-----------11------------------------| 3)-11--------------------|
                 Bis
1)--- -9-12-15-14-15-14|------10-14-15-14-15-12-|
2)---11----------------|---12-------------------|
3)-11------------------|-11---------------------|

1)-14h15-14-12-10-12-10-9------|
2)-----------------------11-12-|

Como si el viento adivinara
de la nostalgia que me embarga,
solo y frente a este mundo
solo y con todos tus recuerdos
no me resigno a perder tu amor
es mas me niego a olvidarte
sabes no quiero perderte
te amo mil veces, te amo.

1)-------------------|---4*---------------|
2)-7-5----------2----|---3*---------------|
3)----6-7-4-3-4--3-4-|---2*---------------|
4)-------------------|---4*---------------|
5)-------------------|---2*---------------|
6)-------------------|---2*---------------|

      Bueno desde aqui de la ciudad imperia mando saludos a la gente
de puerto mazuco, punkiri, mazuco y de mi barrio

      Espero que les guste cualquier duda de la cancion o si quieren
conocer mas sobre mi y mi guitarra escrivanme en msn.

                                 cusco-peru
                                    2007





Calificar esta versión:
Aviso: Este fichero es trabajo propio de su transcriptor y representa su interpretación personal de la canción. El material contenido en esta página es para exclusivo uso privado, por lo que se prohibe su reproducción o retransmisión, así como su uso para fines comerciales.
Más versiones de Nostalgia, Antologia
Nostalgia
acordes
Nostalgia
tablatura
Nostalgia (ver 2)
tablatura
Nostalgia (ver 3)
tablatura
Descubre más canciones de Antologia