Nostalgia, Antologia (tablatura)

Autor: Anónimo | 35476 visualizaciones



HOLA...Bueno soy yo otra vez.... el de las canciones...

.-Amor de harena (duo romance)
.-Pienzo en ti   (daniel f.)
"La musica es lo mejor que pudo haber inventado el hombre"
Bueno esta es una cancion muy buena, la conoci gracias una amiga
y justamente a ella es a quien se la dedico.......
Saludos a todos los de latinoamericanos y a los que aprecian este genero
Saludos a AREQUIPA (extraño mi tierra),
a CARLITOS,ELI y JOAQUIN mis primasos...
OK sin mas preambulo ahi les va..........
La musica es lo mejor que pudo haber inventado el hombre..!
DATOS:
 * =En conjunto significa que se rasguee.
 ()=Atencion con esto,los toques que estan entre parentesis
    se toca rapidamente para adornar el punteo.
  /=Bueno este ya lo saben.
  h=Este tambien ya lo saben.

   FA#m  como SI el viento...           de la nostalgia que...
6|--2*---------------------------------------------------------
5|--4*---------------------------------------------------------
4|--4*---------------------------------------------------------
3|--2*-----------------------4-6-4-2-1-2-----------------------
2|--2*---------------------------------------------------------
1|--2*-----------------------4/5-4-2-1-2-----------------------

punteo (A)

   SIm       FA#m  SIm        FA#m RE...
6|--------------------------------------------------------------------
5|--------------------------------------------------------------------
4|---------424--------------424--------(44)44h2-024------(44)44h2-024-
3|----444h2------------444h2-------22h4--------------22h4-------------
2|-2h3-------------22h3-----------------------------------------------
1|--------------------------------------------------------------------

         SIm
6|--------
5|-0-1-2--
4|--------
3|--------
2|--------
1|--------
         Son tus recuerdos y estan
         SIm                   FA#m
         matandole a mi corazon
punteo(A)  SIm              FA#m
         lo peor esque no puedo olvidar
             RE...
         en la distancia te se esperar

         Y vuelve mi llato a caer
punteo(A)  SIm                 FA#m
         abrazando a esta mi soledad
             SIm                 FA#m
         mi vida no tiene razon
            RE...
         sin ti yo no se a donde voy


punteo (B)

   RE      SOL   LA         RE              SIm         FA#
6|----------------------------------------------------------------------
5|----------------------------------------------------------------------
4|----------------------------------------------------------------------
3|---16-------------------------------------11--------------------------
2|-----15----------14------------------------12-12-14-15----------------
1|-14----14-15---12---17-15-15-(1414)-12-14---10--------14-(1212)-11-12-

          SIm                           FA#      SIm
6|------------------------------------------------------
5|------------------------------------------------------
4|------------------------------------------------------
3|--11-------------------------------------11-----------
2|----11-------------------15-15-(1414)-11---11--12-----
1|-9----9-12-(12h10)-9-10----------------------9--------

         Como si el viento adivinara
                    FA#           SIm
         de la nostalgia que me embarga
                  FA#                SIm
         solo y frente a este mundo
         RE      FA#             SIm
         solo y con todos tus recuerdos
         RE         FA#             SIm
         no me resigno a perder tu amor
         RE..
         es mas me niego a olvidarte
         RE        FA#            SIm
         sabes no quiero perderte
         RE        FA#         SIm
         te amo mil veces te amo
         RE         FA#        SIm


 punteo (C)

OJO: En la parte donde estan los toques con dos puntos,
esos toques se hacen en simultaneo.
en la cancion no lo hacen asi (son con dos instrumentos)
pero lo hice asi y suena bien a doble cuerda.


           FA#                                          SIm
6|--------------------------------------------------------------
5|--------------------------------------------------------------
4|--------------------------------------------------------------
3|-------------(1111)/13----------------------------------------
2|---------14---------------------------------------------------
1|-14-14-12--------------14-13-14--14-12-(12h14)(12h13)-10------

           FA#                                      SIm
6|--------------------------------------------------------------
5|--------------------------------------------------------------
4|--------------------------------------------------------------
3|-------------11/13--------------------------------------------
2|---------14---------------------------------------------------
1|-14-14-12----------14-13-14--14-12-(12h14)(12/13)-10----------

                          FA#                            SIm
6|-------------------------------------------------------------
5|-------------------------------------------------------------
4|-------------------------------------------------------------
3|--7/16-16-----:17:16:17:15---11/14-----------:17:16:17:16:---
2|---------15-----------------------11-14----------------------
1|-----------14--15-14-15-12-------------10/12--15-14-15-14----

                          FA#                                    SIm
6|------------------------------------------------------------------
5|------------------------------------------------------------------
4|------------------------------------------------------------------
3|--7/16-16-----:17:16:17:15:---------------------------------15-16-
2|---------15----------------------------17-15-17-14-(14h15h14)-----
1|-----------14--15-14-15-12---(14h15)14----------------------------

         Como si el viento adivinara
                    FA#           SIm
         de la nostalgia que me embarga
                  FA#                SIm
         solo y frente a este mundo
         RE      FA#             SIm
         solo y con todos tus recuerdos
         RE         FA#             SIm
         no me resigno a perder tu amor
         RE..
         es mas me niego a olvidarte
         RE        FA#            SIm
         sabes no quiero perderte
         RE        FA#         SIm
         te amo mil veces te amo
         RE         FA#        SIm

punteo (final)

    SIm...                                       FA#/SOL#
6|-------------------------------------------------x------------
5|-------------------------------------------------2*-----------
4|-------------------------------------------------4*-----------
3|------6-7--4-3-4-6-3-4-------6-7--4-3-4-6-3-4----2*-----------
2|--7-5--------------------7-5---------------------3*-----------
1|-------------------------------------------------4*-----------



SE DESPIDE ESTE FIEL AMIGO Y  SERVIDOR....GERALD
cualquier duda,reclamo,amenaza, lo que sea a  FAZLUZAM@hotmail.com
frase: "Sin frase es mejor,sin pan y sin alfajor"
esta vida es dulce y rica, solo hay que actuar con amor...
 Es Milagros...gracias a ella conoci esta cancion...
hoy es una de mis favoritas
TENGO EL ORGULO DE SER CHOLO...!
VIVA EL PERU!

 (critica constructiva)...
ah por favor respeten las reglas y asi todo saldra  bien...ok?
si vana  enviar un  tab haganlo bien si no no lo hagan por favor...
se que es dificil pero traten de hacerlo mejor...





Calificar esta versión:
Aviso: Este fichero es trabajo propio de su transcriptor y representa su interpretación personal de la canción. El material contenido en esta página es para exclusivo uso privado, por lo que se prohibe su reproducción o retransmisión, así como su uso para fines comerciales.
Más versiones de Nostalgia, Antologia
Nostalgia
acordes
Nostalgia
tablatura
Nostalgia (ver 2)
tablatura
Nostalgia (ver 3)
tablatura
Descubre más canciones de Antologia