Noche, Antologia (tablatura) (ver 2)

Autor: Anónimo | 36842 visualizaciones



ESTA ES LA INTRODUCCION DE LA MEJOR CANCION DE ANTOLOGIA
       
	E|--5--7--9--12--10--9--7----4--5--7--9--7--5--4--2--4--5--
	B|---------------------------------------------------------
	G|---------------------------------------------------------
	D|---------------------------------------------------------
	A|---------------------------------------------------------
	E|--5--7--9--12--10--9--7----4--5--7--9--7--5--4--2--4--5--
	/


	
	E|--5--4--5--7--9--7--
	B|--------------------
	G|--------------------
	D|--------------------
	A|--------------------
	E|--5--4--5--7--9--7--
	/


	
	E|--5--7--9--12--10--9--7----4--5--7--9--7--5--4--2--4--5--
	B|---------------------------------------------------------
        G|---------------------------------------------------------
	D|---------------------------------------------------------
	A|---------------------------------------------------------
	E|--5--7--9--12--10--9--7----4--5--7--9--7--5--4--2--4--5--
	/

	
	E|-5--9--12--
	B|-----------
	G|-----------
	D|-----------
	A|-----------
	E|-5--9--12--
	/

        DEDICADO A LA TACHI


  	_/_/_/_/							 _/_/_/_/
  	_/            _/_/						 _/    _/
  	_/	     _/  _/                                              _/    _/
 	_/	    _/    _/                                             _/    _/
        _/         _/      _/       _/_/     _/_/   _/_/_/_/    _/_/     _/    _/
 	_/        _/        _/      _/ _/   _/ _/   _/         _/  _/    _/    _/
 	_/	 _/          _/     _/  _/_/   _/   _/         _/   _/   _/    _/
 	_/	_/_/_/_/_/_/_/_/    _/         _/   _/         _/    _/  _/    _/
  	_/     _/              _/   _/         _/   _/         _/     _/ _/    _/
  	_/    _/                _/  _/         _/   _/_/_/_/   _/      _/_/    _/
  	_/   _/                   					       _/
  	_/  _/                  CONSULTAS A:                                   _/
        _/  _/                  ARTURO_MARK@HOTMAIL.COM                        _/
 	_/_/_/  		(LIMA-PERU)					_/_/_/





Calificar esta versión:
Aviso: Este fichero es trabajo propio de su transcriptor y representa su interpretación personal de la canción. El material contenido en esta página es para exclusivo uso privado, por lo que se prohibe su reproducción o retransmisión, así como su uso para fines comerciales.
Más versiones de Noche, Antologia
Noche
acordes
Noche (ver 2)
acordes
Noche
tablatura
Noche (ver 2)
tablatura
Descubre más canciones de Antologia