Noche, Antologia (acordes) (ver 2)

Autor: Anónimo | 37190 visualizaciones

dososmfasosmlamisim


Un saludo grandaso pa todas las persona de huamachuco  bueno ahi les vaaa
Esta entrada la saque del concierto ok.
Ritmo = SAYA
==========================================================================


E--------9-12-10-9-------------9----------------|
B--10-12-----------12--9-10-12--12-10-9---9-10--|
G---------------------------------------11------|
D-----------------------------------------------|
A-----------------------------------------------|
E-----------------------------------------------|

E--------9-12-10-9-------------9--------------------10h12-|
B--10-12-----------12--9-10-12--12-10-9---9-10---10-------|
G---------------------------------------11-----11---------|
D---------------------------------------------------------|
A---------------------------------------------------------|
E---------------------------------------------------------|

La                 Do#m
Noche, tu que comprendes
       Sim        La         Mi
mi tristeza y también mi soledad. Aha...
La               Do#m
Dile a las estrellas
            Sim
que no es tiempo
La
que mi amada se marchó
        Do#m
y un recuerdo me dejó
          Sim        Fa#m
y hoy no puedo olvidarla

La
que mi amada se marchó
        Do#m
y un recuerdo me dejó
          Sim        Fa#m
y hoy no puedo olvidarla

La
como la mañana
         Do#m
que al mirarme sonreiste
      Sim       Fa#m
y mi vida se alegró


[Se Repite todo de nuevo]

                                   FIN





Calificar esta versión:
Aviso: Este fichero es trabajo propio de su transcriptor y representa su interpretación personal de la canción. El material contenido en esta página es para exclusivo uso privado, por lo que se prohibe su reproducción o retransmisión, así como su uso para fines comerciales.
Más versiones de Noche, Antologia
Noche
acordes
Noche (ver 2)
acordes
Noche
tablatura
Noche (ver 2)
tablatura
Descubre más canciones de Antologia