Echale La Culpa Al Rock And Roll, Amen (tablatura)

Autor: harold02 | 44102 visualizaciones



INTRO:

|-----------2-3-3-3-3-3-2-x--------------------------|
|-1s2-2-2-x-3-3-3-3-3-3-3-x--1-1-1-x--2--x-x-x-x-x---|
|-1s2-2-2-x-2-2-2-2-2-2-2-x--0-0-0-x--2--x-x-x-x-x---|
|-1s2-2-2-x-0-0-0-0-0-0-0-x--2-2-2-x--2--x-x-x-x-x---|
|-0-0-0-0-x------------------3-3-3-x--0--x-x-x-x-x---|
|----------------------------------------------------|


|------|
|------|
|-5s6--|
|------|
|-3s4--|
|------|

|------------------|
|------------------|
|--7p5--7--5-------|-------------------------->(A)
|-------------7vib-|
|------------------|
|------------------|

|--------------|
|--------------|
|------5-------|------------------------>(B)
|-7-7-----7----|
|--------------|
|--------------|

|--------------|
|-10p8^--10vib-|
|--------------|----------------------->(C)
|--------------|
|--------------|
|--------------|

|---------------|
|---------13^---|
|-----12--------|-------------------->(D)
|--14-----------|
|---------------|
|---------------|

|--17p15^^--17vib--|
|------------------|
|------------------|-------------------->(E)
|------------------|
|------------------|
|------------------|

|------------------------------|
|------------------------------|
|-7^-5-5-----------------------|-------------------------------->(F)
|--------7-----5---------------|
|------------------7--5--------|
|------------------------8--5--|




INTRO:

|-----------------------------------21----------19------------------------
|-----8?-10^--7^vib---------------------19^vib------17^vib---17^-17^-17^--
|-7s9---------------------------------------------------------------------
|-------------------10-10-10p7--7-----------------------------------------
|-------------------------------------------------------------------------
|-------------------------------------------------------------------------

--------------|
--------------|
--------------|
-19-17-19vib -|
--------------|
--------------|




ME LARGUE DE MI CASA, ME JODIAN CADA VEZ------------------------->(A)

QUE ME FUMABA UN WINSTON Y ME DECIAN QUE HACER,---------------->(B)

CON LA CABEZA HINCHADA POR LAS PALABRAS DE MAMA--------------------->(C)

?HIJITO NO VENGAS TARDE, YA TE TIENES QUE ACOSTAR?.


CON MI GUITARRA EN MANO, ME TENGO QUE LARGAR
A OTRO MUNDO DONDE ME DEJEN TOCAR.,
|-2-2-2-2---2-2-2-2---2-2-2-2---0-0-0-0-0-0-0-0-0-0-0-0--|
|-2-2-2-2---3-3-3-3---2-2-2-2---0-0-0-0-0-0-0-0-0-0-0-0--|
|-2-2-2-2---2-2-2-2---2-2-2-2---1-1-1-1-1-1-1-1-1-1-1-1--|
|-4-4-4-4---0-0-0-0---4-4-4-4---2-2-2-2-2-2-2-2-2-2-2-2--|
|-4-4-4-4-------------4-4-4-4---2-2-2-2-2-2-2-2-2-2-2-2--|
|-2-2-2-2-------------2-2-2-2---0-0-0-0-0-0-0-0-0-0-0-0--|


PUNTEO:

|----------------------------------------------------------|
|-----5----------------------------------------------------|
|-7^^----7^--5^-5----------4^------------------------------|
|-----------------7?5h7-7-----7p5-7--4-4^-----4^-4^--------|
|-----------------------------------------7---------7------|
|----------------------------------------------------------|


SI ELLOS ENTENDIERAN LO QUE LLEVO EN EL CORAZON;---------------->(D)

LA MUSICA Y MUJERES SOBRE TODO EL ROCK N? ROLL------------------>(E)

SI ELLOS COMPRENDIERAN LO QUE LES QUIERO EXPRESAR,------------->(F)

YO TENDRÍA UNA CARRERA Y UN SITIO DONDE JATEAR,



CON MI GUITARRA EN MANO, ME TENGO QUE LARGAR
A OTRO MUNDO DONDE ME DEJEN TOCAR.,


SOLO:

|--------------------------------|
|--------------------------------|
|-7p5-7-7p5-----5----------------|
|------------7-----7?5h7p5----5--|
|---------------------------7----|
|--------------------------------|


|------------------------------------------------------------------------
|--------------------------------------------------8-8-8-8-8s10-10-10-10-
|-6-6-6-6-6-6s7-7-7-7-7-7s11-11-11-11s9-9-9-9-9-9--x-x-x-x-x?-x?-x-?x--x-
|-x-x-x-x-x-xxx-x-x-x-x-xxx---x--x--x---x-x-x-x-x--5-5-5-5-5s-7--7--7?7--
|-4-4-4-4-4-4s5-5-5-5-5-5s-9--9?-9?-9s7-7-7-7-7-7------------------------
|------------------------------------------------------------------------


-8^------8h9h10p9p8-8h9h10p9p8-8h9h10p9p8-10p9p8-10p9p8-10p9p8-10p9p8-
----10^---------------------------------------------------------------
----------------------------------------------------------------------
----------------------------------------------------------------------
----------------------------------------------------------------------
----------------------------------------------------------------------


-10p9p8-10p9p8-10p9p8-10p9p8-10p9p8-10p9p8-10p9p8-10p9p8-10p9p8-------
----------------------------------------------------------------------
----------------------------------------------------------------------
----------------------------------------------------------------------
----------------------------------------------------------------------
----------------------------------------------------------------------



-10^--8------8^-8^-----12-----12-----12------12-------------
---------10--------10-----13^----13^-----13^-----13^--------
-----------------------------------------------------14vib--
------------------------------------------------------------
------------------------------------------------------------
------------------------------------------------------------


--------------------------------15^--15--12------12?-12^-12^-12^-12^-12^-
---------------------------------------------15--------------------------
-9^----9^----9^------12^-------------------------------------------------
----7-----7-----7--------12^-12------------------------------------------
-------------------------------------------------------------------------
-------------------------------------------------------------------------

-8-7-5------------------8-7-5--------------------
------8-7-5-------8-7-5-------8-7-5-------8-7-5--
------------8-7-5-------------------8-7-5--------
-------------------------------------------------
-------------------------------------------------
-------------------------------------------------

------5-----------------------------5----10?-8vib----|
----5---8-5--------------------5-8-------------------|
-7^----------8-7-5-7-------5-7-----------------------|
----------------------5h7----------------------------|
-----------------------------------------------------|
-----------------------------------------------------|


SOLO 2:

|----------------------------------------------------------------------|
|----------10----------------------------------------------------------|
|-12^--12------12-9----------------------------------------------------|
|--------------------12^-12^--10---------12^--12-10-12vib---10^-10^----|
|---------------------------------12-10-----------------------------12-|
|----------------------------------------------------------------------|


SON LAS SIETE DE LA SIETE DE LA NOCHE Y AVION VA A DESPEGAR;------>(C)

AUNQUE NO TENGA MALETAS MUY ALTO VOY A VOLAR, --------------->(C)

SOLO TENGO UNA GUITARRA PARA PODERME PEGAR----------->(C)

DEPENDE DE ?LA MINAYA? PARA PODERME GRABAR.


CON MI GUITARRA EN MANO, ME TENGO QUE LARGAR
A OTRO MUNDO DONDE ME DEJEN TOCAR.,


|--10^--------------10^--------10^-----------------------12^-12^--12^--|
|----------------------------------------------------------------------|
|----------------------------------------------------------------------|
|----------------------------------------------------------------------|
|----------------------------------------------------------------------|
|----------------------------------------------------------------------|

|--12^--21^---15h18--15----15------------------------------------------|
|-----------------------18----18?15h18p15-15----15---------------------|
|--------------------------------------------18----18-17-15----15-15---|
|-----------------------------------------------------------17---------|
|----------------------------------------------------------------------|
|----------------------------------------------------------------------|





Calificar esta versión:
Aviso: Este fichero es trabajo propio de su transcriptor y representa su interpretación personal de la canción. El material contenido en esta página es para exclusivo uso privado, por lo que se prohibe su reproducción o retransmisión, así como su uso para fines comerciales.
Más versiones de Echale La Culpa Al Rock And Roll, Amen
Echale La Culpa Al Rock And Roll
acordes
Echale La Culpa Al Rock And Roll
tablatura
Echale La Culpa Al Rock And Roll
bajo
Descubre más canciones de Amen