Echale La Culpa Al Rock And Roll, Amen (bajo)

Autor: Anónimo | 27885 visualizaciones



ECHALE LA CULPA AL ROCK AND ROLL
INTRO
|----------------------------------------------------------------
|----------------------------------------------------------------
|--3----------------------------5-5-5-5-5-5--3-------------------
|-----3-3--5--3--5---5-5-5-5-5-------------------33--5--3-5--3-5-

--------------------------------------------------------------|
-------------------------------------5s7--5-------------------|
------------5-5-5-5-5-5--3-------------------7----------------|
-5-5-5-5-5-------------------33--5----------------5-----------|


(A)
|--------------------------------------------------|
|--------------------------------------------------|(x4)
|------------5-5-5-5-5-5-5--3----------------------|
|-5-5-5-5-5--------------------33--5--3-5--3-5--3--|

(B)
|-----------------------------------------------------------------------|
|-----------------------------------------------------------------------|
|----------------5-5-5-5-5-5-5-5----------------------------------------|
|-2-2-2-2-2-2-2-------------------2-2-2-2-2-2-2-2--0-0-0-0-0-0-0-0-0s12-|

(A) x 6

(B)

(A) x 4

|---------------------------------------------------------------------
|---------------------------------5-6-7-----------2h4-2---------------
|----------------5-5-5-5-5-5-5-5-------------------------4-2----------
|-2-2-2-2-2-2-2----------------------------2-2-2-------------5—0-0-0-0-

|-----------------------------------------------------------------7s9-5-|
|-----------------------------------------------------------------------|
|------------------------------------5-5-5-5-5-5-5-5--3-----------------|
|-0-0-0-0-0-0-0-0---12s0--5-5-5-5-5-----------------------33---5--------|

|-------7s9--9--7----------7---------9-7-------------------------------|
|-----7------------10--7-7-----7--10-------10--77-7-55-5---------------|
|-------------------------------------------------------77-7-55--------|
|-5-------------------------------------------------------------8-33-5-|

|-------------------------5—5s7s5---------------------------------7s9-5-|
|-----5-7-5-----------5-7---------------5-7-5---------------------------|
|---7-------7-5-----------------------7-------7-5-----------------------|
|-2-------------7--5---------------2--------------7--0-0-0-0-0-0--------|

(A)x 6

(B)

(A)


oeeeeeeeee sacalaaaaaaaaa!!!!





Calificar esta versión:
Aviso: Este fichero es trabajo propio de su transcriptor y representa su interpretación personal de la canción. El material contenido en esta página es para exclusivo uso privado, por lo que se prohibe su reproducción o retransmisión, así como su uso para fines comerciales.
Más versiones de Echale La Culpa Al Rock And Roll, Amen
Echale La Culpa Al Rock And Roll
acordes
Echale La Culpa Al Rock And Roll
tablatura
Echale La Culpa Al Rock And Roll
bajo
Descubre más canciones de Amen