Schools Out, Alice Cooper (tablatura) (ver 2)

Autor: MatyKyng | 18127 visualizaciones

Intro
1.---------------------------
2.---------------------------
3.----------------------5/1--Se repite 5o10 veces preferentemente
4.---0-0-4-0-0-5-0-0-4-0-----
5.--------------------------- 
6.---------------------------  

Pre coro
1.-----------------------------
2.-----------------------------
3.-----------------------------
4.-----------------------------
5.---4-4-4-4-4-4-4--5?{6-6-6-6}-
6.---4-4-4-4-4-4-4--5?{6-6-6-6}- se repite

Coro
1.--------6-------6---6-----6-----------
2.------5------5--------5------5--------
3.----4------4------------4-------4-----
4.--------------------------------------
5.--------------------------------------
6.--------------------------------------
Calificar esta versión:
Aviso: Este fichero es trabajo propio de su transcriptor y representa su interpretación personal de la canción. El material contenido en esta página es para exclusivo uso privado, por lo que se prohibe su reproducción o retransmisión, así como su uso para fines comerciales.
Más versiones de Schools Out, Alice Cooper
Schools Out
tablatura
Schools Out (ver 2)
tablatura
Schools Out (ver 3)
tablatura
Schools Out (ver 4)
tablatura
Descubre más canciones de Alice Cooper