A Gritos De Esperanza, Alex Ubago (tablatura) (ver 2)

Autor: Anónimo | 45314 visualizaciones

A GRITOS DE ESPERANZA (ALEX UBAGO)
Aquí esta la intro y el solo perfecto y además con la segunda voz 
se canta la primer parte. Dudas o comentarios:  Elkinuru87@hotmail.com

Dúo de Guitarra, Intro (primera voz)

E-----------------------------
B---------------------------8-
G---------------4-s-5-5-s-7-9-
D-5-s-7-7-s-9-9—--------------
A-----------------------------
E-----------------------------

E-----------------------------
B------7—8—8—7—---------------
G-7--9-7-9-9-7-7-7--9—-9------
D-9-10—--------9—9—10—10------
A-----------------------------
E-----------------------------

E-----------------------------
B-----------------------------
G-7-h-9-7—-----------7--------
D---------10-9----10---10-9-7-
A-----------------------------
E-----------------------------

E-----------------------------
B----7-8-7--------------------
G--9-7-9-7--9-7-7--9—---------
D-10-------10-9-9-10-10—------
A--------------------10—------
E-----------------------------






(Segunda voz, Acompañante)

(a)

E---------5-3---5-3-----------
B-------3-3-3-7-7-5-7-8-----8-
G-----4---4-4-7-7-5-7-9---9---
D---5---------7-----7-9-9-----
A-5-------------------7-----7-
E-----------------------------




E-------------
B-7----3-3-5--
G---7--4-4-5--
D----9-5-5-5--
A-9----5-5----
E-------------

(b)

E---------5-3---5-3---
B-------3-3-3-7-7-5-7-
G-----4---4-4-7-7-5-7-
D---5---------7-----7-
A-5-------------------
E---------------------

E-----------
B-8-7-5-3-3-
G-9-7-5-4-4-
D-9-9-5-5-5-
A-7-9-3-5-5-
E----------- Aquí termina el dúo de intro

Cuando comiences a cantar has lo con el arpegio (a) hasta 
que llegue la parte de la percusión.

(tienes que escucharlo bien para tocarlo así mismo) Solo:

E------------10-10-8-7---
B-----7-8-10----------10-
G-7-9--------------------
D------------------------
A------------------------
E------------------------

E----7-8-7------------
B-10---------7-8-10---
G-------------------7-
D----------9----------
A---------------------
E---------------------

E-----8-8-8-8-7-8-7-------------------
B-----------------8--------7-8-8-7--8-
G-7-9---------------7-7--9-7-9-9-7--9-
D-------------------9-9-10---------10-
A-------------------------------------
E-------------------------------------

E---------/---------
B-8-7-----/--8-7----
G-9-7--9--/--9-7--9-
D-----10--/------10-
A---------/---------
E---------/---------

E------------7-8-10-8-7------------
B-----7-8-10------------10-8-7-----
G-7-9--------------------------9-7-
D----------------------------------
A----------------------------------
E----------------------------------

Espero que les guste este trabajo “sencillito”. 
Comentarios escriba a: Elkiuru87@hotmail.com
Dedicado a mis amigos de Granada Meta

Fuente original: LaCuerda
Colaborador original: Elkin [elkinuru@hotmail.com]
Calificar esta versión:
Aviso: Este fichero es trabajo propio de su transcriptor y representa su interpretación personal de la canción. El material contenido en esta página es para exclusivo uso privado, por lo que se prohibe su reproducción o retransmisión, así como su uso para fines comerciales.
Más versiones de A Gritos De Esperanza, Alex Ubago
A Gritos De Esperanza
acordes
A Gritos De Esperanza (ver 2)
acordes
A Gritos De Esperanza (ver 3)
acordes
A Gritos De Esperanza
tablatura
A Gritos De Esperanza (ver 2)
tablatura
A Gritos De Esperanza (ver 3)
tablatura
Descubre más canciones de Alex Ubago