A Gritos De Esperanza, Alex Ubago (acordes) (ver 3)

Autor: isaias249 | 15687 visualizaciones

bmcddoemgmimresimsol
Intro:

        G            D          Em   Bm    C
e|--------------------------0h2-3--3-2-------------|
B|-------------0h1--1s3-3--------------3-3s5-5-----|
D|-0h2--2s4-4--------------------------------------|
G|-------------------------------------------------|
A|-------------------------------------------------|
E|-------------------------------------------------|

              G             D           Em D  C  Bm      C
e|----------------------------------------------------------|
B|---3h5p3--1-0----1h3p1--0---------------------------------|
D|--------------------------2-----0--2--4--2--0-------0-----|
G|-----------------------------------------------4--4----2--|
A|----------------------------------------------------------|
E|----------------------------------------------------------|



     Sol        Re       Mim Sim Do
A pesar que la luna no brille   mañana,
      Sol               Re                      Mim Sim
dará igual, solo verte reir es lo que me hace feliz,
  Do
mi alma...

       Sol                    Re
Y es verdad que una mirada distinta
                   Mim Sim  Do
o algun gesto más frio    se clava
      Sol                    Re
en mi pecho, daga del desconcierto,
           Mim Re Do Sim Do
pero amor, ahí está la magia.

  Do                   Re
Ahora que te veo niña, ya te echo de menos,
      Sol       Fa#/Sol                   Mim
no imagino mis heridas si algun dia te vas lejos.
    Do           Re
Querria..... por esto...

 Sol             Re
si preguntan por mi 
 Mim              Sim
no les digas donde fui,
      Do
que tu alma sea fuerte
       Re
cuando mires hacia el frente
     Sol          Fa#/Sol        Mim
no recuerdes todo lo que no te di.

          Do
Y es que quedan tantas cosas
       Re
por contarte y que me cuentes.
       Sol       Fa#/Sol        Mim
Tantos ratos y pasiones por vivir...
     Do        Re
a tu lado...oh mi vida...
     Sol 
a tu lado...


solo

           G        D                        Em           Bm
e|----7-8-10---8-7-------------------7-8--------------------------|
B|----8-------------10s12-10---8s10-------10s12--------7-8-10-----|
D|----7------------------------------------------7h9----------7---|
G|----------------------------------------------------------------|
A|----------------------------------------------------------------|
E|----------------------------------------------------------------|

           C                  Bm           G      F#/G     Em
e|---------8-8--8-8---7--5---7---------------7-------7------------|
B|--------------------------------------7--8---8--7----7----------|
D|--7s9-9--9-9--9-9---7--7-7---7-7-7--9----7------7--------9------|
G|-----------------------------0---------------------------9------|
A|----------------------------------------------------------------|
E|----------------------------------------------------------------|

          C           D
e|-------------------------------------------------7h8h10p8p7------|
B|--8--7--5----8--7------5--7------------5h7s8s10-------------10-8-|
D|--9--7--5----9--9----7-------------5h7---------------------------|
G|-------------------7-----------7h9-------------------------------|
A|-----------------------------------------------------------------|
E|-----------------------------------------------------------------|




    Sol               Re      Mim     Sim  Do
Y Ojalá, que nuestros ojos si brillen... mañana,
       Sol                    Re
que tu voz siga pidiendome a gritos amor,
  Mim Re  Do  Sim Do
a gritos de esperanza.

 Do                        Re
ahora que te tengo no pienso perder el tiempo
      Sol            Fa#/Sol     Mim
ni perderme por mi absurdo ego ni un solo momento,
     Do         Re
se esfuma...el miedo...

 Sol             Re
si preguntan por mi 
 Mim               Sim
no les digas donde fui,
       Do
que tu alma sea fuerte
       Re
cuando mires hacia el frente
     Sol          Fa#/Sol      Mim
no recuerdes todo lo que no te di.


       Do
Que tu luz brille por siempre
       Re
porque tu te lo mereces
     Sol           Fa#/Sol   Mim
y perdona si algun día pretendí
        Do            Re
que no fueras...Oh tu misma...


 Sol              Re
si preguntan por ti,
 Mim             Sim
solo diré que te vi
       Do                      Re
en mis sueños una noche y sólo sueño desde entonces
     Sol        Fa#/Sol     Mim
para verme cada día junto a ti.

          Do
Y es que quedan tantas cosas
       Re
por contarte y que me cuentes.
       Sol       Fa#/Sol        Mim
Tantos ratos y pasiones por vivir...
     Do        Re
a tu lado...oh mi vida...
     Sol 
a tu lado...

    G         D          Em           D              Bm       C         G
e|----------------5-3-2----3------3-----2-------2----------------0----0------3-|
B|--8--8-10-8-7---7-5-3---5-----5------3------3--------3---3----1----1------3--|
G|-----------------------4----4-------2-----2---------4---4----0----0------0---|
D|---------------------------------------------------4---4----2----2------0----|
A|-----------------------------------------------------------------------2-----|
E|----------------------------------------------------------------------3------|

CHORDS:
   G  D  Em Bm  C  F#/G
e|-3--2--0--4---0---3----|
B|-3--3--3--3---1---3----|
G|-0--2--0--4---0---X----|
D|-0--0--2--4---2---X----|
A|-2--0--2--2---3---X----|
E|-3--X--0--X---3---2----|
Calificar esta versión:
Aviso: Este fichero es trabajo propio de su transcriptor y representa su interpretación personal de la canción. El material contenido en esta página es para exclusivo uso privado, por lo que se prohibe su reproducción o retransmisión, así como su uso para fines comerciales.
Más versiones de A Gritos De Esperanza, Alex Ubago
A Gritos De Esperanza
acordes
A Gritos De Esperanza (ver 2)
acordes
A Gritos De Esperanza (ver 3)
acordes
A Gritos De Esperanza
tablatura
A Gritos De Esperanza (ver 2)
tablatura
A Gritos De Esperanza (ver 3)
tablatura
Descubre más canciones de Alex Ubago