Al Taller Del Maestro, Alex Campos (tablatura) (ver 4)

Autor: Anónimo | 25914 visualizaciones



El Intro acompaña la cancion hasta que llegue a Am.
Las tablaturas que estan debajo de algunas estrofas
son el punteo que se hace en esa parte.

Intro: C G

  Guitarra 1
  //   C                   G
    D|-----3--2------3---2-----2--0--------0---|
    A|-3---------3----------------------2------|
    E|---------------------3---------3---------|

  Guitarra 2
       C                   G
    e|------0----------0------3----------------|
    B|----1--1-1-----1--1-1--3-------3-6-5-3-1-|
    G|---0-0--0-----0-0--0--0------------------|
    D|-----------------------------------------|
    A|-3---------3-----------------------------|
    E|---------------------3-------------------|//


C                           G
Hay como me duele estar despierto
               C
Y no poder cantar
                       G
Como expresarte sin palabras
                  C
Me muero si no estas
                           G
Que el tiempo pasa y todo cambia
                     C
Hoy lloro de de soledad
                             G
Que el sueño que llevo en el alma
                  C
De repente ya no esta
                             G
Que las sonrisas se han marchado
                 Am                 G
Mis lágrimas caerán
                  e|-0-h1-p0---0h1p0----|
                  B|----------------3-3-|
                  G|--------------------|

                Am                         G              C
Mis lágrimas caerán
  e|----------------0-3-3--1-1-1--0-1-0-1-0-----------------|
  B|----1-3--1------------------------------3--------1-3--1-|
  G|-0-1----------------------------------------0-1-1-------|

C                      G
Al taller del maestro vengo
                C
Pues el me curará
                      G
Me tomara entre sus brazos
                   Am
Y cada herida sanará
                     G
Las herramientas del maestro
e|-1-1-1--0-0------------------8-8-8-7-7-7-|
B|-----------------------------------------|
G|-----------------------------------------|
                   C
Mi alma el remendará
                          G
Martillo en mano y mucho fuego
e|-10h12------------------------------3-|
B|--------------------------------3-5---|
                     Dm
Aunque me duela ayudará
                    Am
A conocerlo y entenderlo
      e|-1-1-1-3-1-1-0|
                    F
A saber que nada merezco
                  e|-1-0-1|
                       C
Amar es más que un pretexto
        e|7-8-8-8-7-5-3-1-0|

                        Gm
Es una entrega en un negar

                     Dm
Más que aquel sentimiento
            e|---0-1-0-1-3-1-0-|
            B|-3---------------|
                    Am   E
Es la decisión de amar
e|-8-8-8-8-12-12-10-10-8-8--8-8-8-8-10-8-8-7-8-7|


E                      Am
Al taller del maestro vengo
                      E
Allí, allí el sol se pondrá
                       Am
Al taller del maestro vengo
                          E
Carpintero mi alma aquí está
                       Am
Al taller del maestro vengo
                                       E
No importa el tiempo que allí he de estar
                    C
Al taller de maestro

  Guitarra 1
     C                   G
    D|-----3--2------3---2-----2--0--------0---|
    A|-3---------3----------------------2------|
    E|---------------------3---------3---------|

  Guitarra 2
       C                   G
    e|------0----------0------3----------------|
    B|----1--1-1-----1--1-1--3-------3-6-5-3-1-|
    G|---0-0--0-----0-0--0--0------------------|
    D|-----------------------------------------|
    A|-3---------3-----------------------------|
    E|---------------------3-------------------|


C                               G
Hay de aquellos día que hizo frió
                   C
Y el sol no apareció
                            G
Cuando el talento no lo es todo
                 C
El silencio vale más
                         G
Que mil palabras sin sentido
                 C
La vida que morirá
                        G
Si tu no estas aquí conmigo
                    C
De que sirve mi cantar
                           G
Para que la fama y las estrellas
                         C
Si el maestro allí no esta
                          G
Para que decirte que te amo
                        C
Si contigo no quiero estar


C                      G
Al taller del maestro vengo
                C
Pues el me curará
                      G
Me tomara entre sus brazos
                   Am
Y cada herida sanará
                        G
Las herramientas del maestro
                   C
Mi alma el remendará
                          G
Martillo en mano y mucho fuego
                      Dm
Aunque me duela ayudará

                    Am
A conocerlo y entenderlo
      e|-1-1-1-3-1-1-0|
                    F
A saber que nada merezco
                  e|-1-0-1|
                       C
Amar es más que un pretexto
        e|-8-8-8-7-7-5-5-3-3-1-1-0-0

                        Gm
Es una entrega en un negar

                     Dm
Más que aquel sentimiento
            e|---0-1-0-1-3-1-0-|
            B|-3---------------|
                    Am   E
Es la decisión de amar
e|-8-8-8-8-12-12-10-10-8-8--8-8-8-8-10-8-8-7-8-7|


E                      Am
Al taller del maestro vengo
                      E
Allí, allí el sol se pondrá
                       Am
Al taller del maestro vengo
                          E
Carpintero mi alma aquí está
                       Am
Al taller del maestro vengo
                                       E
No importa el tiempo que allí he de estar
                       Am
Al taller de maestro vengo
                    E
Aquí estoy, carpintero





Calificar esta versión:
Aviso: Este fichero es trabajo propio de su transcriptor y representa su interpretación personal de la canción. El material contenido en esta página es para exclusivo uso privado, por lo que se prohibe su reproducción o retransmisión, así como su uso para fines comerciales.
Más versiones de Al Taller Del Maestro, Alex Campos
Al Taller Del Maestro
acordes
Al Taller Del Maestro (ver 2)
acordes
Al Taller Del Maestro (ver 3)
acordes
Al Taller Del Maestro
tablatura
Al Taller Del Maestro (ver 2)
tablatura
Al Taller Del Maestro (ver 3)
tablatura
Al Taller Del Maestro (ver 4)
tablatura
Al Taller Del Maestro
bajo
Descubre más canciones de Alex Campos