Al Taller Del Maestro, Alex Campos (tablatura) (ver 3)

Autor: Anónimo | 32481 visualizaciones



AL TALLER DEL MAESTRO     TONALIDAD CM(DO MAYOR)
INTRO: GUITARRA (BIS)

              C                          G
e|---------------------------|------------------------|
B|--------1-------1----------|------1-------1---------|
G|------0-------0-------0----|----0-------0-------0---|
D|------------3-------2------|----------3-------2-----|
A|---3-----------------------|-3----------------------|
E|---------------------------|------------------------|

               C                        G
e|---------------------------|------------------------|
B|-------1-------1-----------|------1-------1---------|
G|-----0-------0-------0-----|----0-------0-------0---|
D|-----------2-------0-------|------------------0-----|
A|---------------------------|----------2-------------|
E|--3------------------------|-3----------------------|

               C                         G
e|---------------------------|------------------------|
B|--------1-------1----------|------1-------1---------|
G|------0-------0-------0----|----0-------0-------0---|
D|------------3-------2------|----------3-------2-----|
A|---3-----------------------|-3----------------------|
E|---------------------------|------------------------|


             C                           G
e|---------------------------|------------------------|
B|-------1-------1-----------|------1-------1---------|
G|-----0-------0-------0-----|----0-------0-------0---|
D|-----------2-------0-------|------------------0-----|
A|---------------------------|----------2-------------|
E|--3------------------------|-3----------------------|



ESTROFA I
              C                          G
e|---------------------------|------------------------|
B|--------1-------1----------|------1-------1---------|
G|------0-------0-------0----|----0-------0-------0---|
D|------------3-------2------|----------3-------2-----|
A|---3-----------------------|-3----------------------|
E|---------------------------|------------------------|
     HAY COMO ME DUELE ESTAR DESPIERTO

               C                         G
e|---------------------------|------------------------|
B|-------1-------1-----------|------1-------1---------|
G|-----0-------0-------0-----|----0-------0-------0---|
D|-----------2-------0-------|------------------0-----|
A|---------------------------|----------2-------------|
E|--3------------------------|-3----------------------|

     Y NO PODER CANTAR




              C                          G
e|---------------------------|------------------------|
B|--------1-------1----------|------1-------1---------|
G|------0-------0-------0----|----0-------0-------0---|
D|------------3-------2------|----------3-------2-----|
A|---3-----------------------|-3----------------------|
E|---------------------------|------------------------|
     COMO EXPRESARTE SIN PALABRAS

              C                          G
e|---------------------------|------------------------|
B|-------1-------1-----------|------1-------1---------|
G|-----0-------0-------0-----|----0-------0-------0---|
D|-----------2-------0-------|------------------0-----|
A|---------------------------|----------2-------------|
E|--3------------------------|-3----------------------|
 QUE ME MUERO SI NO ESTAS

               C                          G
e|---------------------------|------------------------|
B|--------1-------1----------|------1-------1---------|
G|------0-------0-------0----|----0-------0-------0---|
D|------------3-------2------|----------3-------2-----|
A|---3-----------------------|-3----------------------|
E|---------------------------|------------------------|
     EL TIEMPO PASA Y TODO CAMBIA

               C                         G
e|---------------------------|------------------------|
B|-------1-------1-----------|------1-------1---------|
G|-----0-------0-------0-----|----0-------0-------0---|
D|-----------2-------0-------|------------------0-----|
A|---------------------------|----------2-------------|
E|--3------------------------|-3----------------------|
     HOY LLORO DE SOLEDAD

              C                          G
e|---------------------------|------------------------|
B|--------1-------1----------|------1-------1---------|
G|------0-------0-------0----|----0-------0-------0---|
D|------------3-------2------|----------3-------2-----|
A|---3-----------------------|-3----------------------|
E|---------------------------|------------------------|
     EL SUEÑO QUE LLEVO EN EL ALMA

              C                          G
e|---------------------------|------------------------|
B|-------1-------1-----------|------1-------1---------|
G|-----0-------0-------0-----|----0-------0-------0---|
D|-----------2-------0-------|------------------0-----|
A|---------------------------|----------2-------------|
E|--3------------------------|-3----------------------|
     DE REPENTE YA NO ESTA

              C                          G
e|---------------------------|------------------------|
B|--------1-------1----------|------1-------1---------|
G|------0-------0-------0----|----0-------0-------0---|
D|------------3-------2------|----------3-------2-----|
A|---3-----------------------|-3----------------------|
E|---------------------------|------------------------|
     QUE LA SONRISA SE HA MANCHADO


              C                    G
e|---------------------------|------------------------|
B|-------1-------1-----------|------1-------1---------|
G|-----0-------0-------0-----|----0-------0-------0---|
D|-----------2-------0-------|------------------0-----|
A|---------------------------|----------2-------------|
E|--3------------------------|-3----------------------|
                           Am-G
     MIS LAGRIMAS CAERAN
                           Am-G
     MIS LAGRIMAS CAERAN

DESPUES DE MIS LAGRIMAS CAERAN EN G PASA INMEDIATAMENTE A LAm Y
LUEGO A G



C                       G                     C
 AL TALLER DEL MAESTRO VENGO, PUES EL ME CURARÁ
                      G                       A 
ME TOMARÁ ENTRE SUS BRAZOS Y CADA HERIDA SANARÁ
                       G                         C
LAS HERRAMIENTAS DEL MAESTRO, MI ALMA EL REMENDARÁ
                           G                          D 
MARTILLO EN MANO Y MUCHO FUEGO, AUNQUE ME DUELA AYUDARÁ...
                    A                         F
A CONOCERLO Y ENTENDERLO, A SABER QUE NADA MEREZCO,
                       C                              D 
AMAR ES MÁS QUE UN PRETEXTO, ES UNA ENTREGA, ES UN NEGAR
                    F                          A  - G
MÁS QUE AQUEL SENTIMIENTO, ES LA DECISIÓN DE AMAR...



                       A                             G
AL TALLER DEL MAESTRO VENGO / AHÍ, AY EL SOL SE PONDRÁ
                       A                                 G
AL TALLER DEL MAESTRO VENGO / CARPINTERO MI ALMA AQUÍ ESTÁ
                       A                                             G
AL TALLER DEL MAESTRO VENGO / NO IMPORTA EL TIEMPO QUE ALLÍ HE DE ESTAR
                           INTRO (SIN REPETIR EL 'BIS')
AL TALLER DEL MAESTRO VENGO...



(ARPEGIO DE LA PRIMERA ESTROFA) MAESTRO ALLÍ NO ESTÁ?
                        G                             A 
¿PARA QUÉ DECIRTE QUE TE AMO, SI CONTIGO NO QUIERO ESTAR?


ESTRFA II
C                              G                    C
AY DE AQUELLOS DÍAS QUE HIZO FRIO, EL SOL NO APARECIÓ;
                            G                       C
CUANDO EL TALENTO NO LO ES TODO Y EL SILENCIO VALE MÁS
                         G                     C
QUE MIL PALABRAS SIN SENTIDO; LA VIDA QUE MORIRÁ
                        G                       C
SI TU NO ESTÁS AQUÍ CONMIGO DE QUÉ SIRVE MI CANTAR,

                            G                               C
¿PARA QUÉ LA FAMA Y LAS ESTRELLAS, SI EL MAESTRO ALLÍ NO ESTÁ?
                        G                             A 
¿PARA QUÉ DECIRTE QUE TE AMO, SI CONTIGO NO QUIERO ESTAR?


AL TALLER DEL MAESTRO VENGO ...


ACUERDATE DE QUE LAS ESTROFAS VAN ACOMPAÑADAS SIEMPRE CON LA
INTRODUCCION HASTA EL LA menor





Calificar esta versión:
Aviso: Este fichero es trabajo propio de su transcriptor y representa su interpretación personal de la canción. El material contenido en esta página es para exclusivo uso privado, por lo que se prohibe su reproducción o retransmisión, así como su uso para fines comerciales.
Más versiones de Al Taller Del Maestro, Alex Campos
Al Taller Del Maestro
acordes
Al Taller Del Maestro (ver 2)
acordes
Al Taller Del Maestro (ver 3)
acordes
Al Taller Del Maestro
tablatura
Al Taller Del Maestro (ver 2)
tablatura
Al Taller Del Maestro (ver 3)
tablatura
Al Taller Del Maestro (ver 4)
tablatura
Al Taller Del Maestro
bajo
Descubre más canciones de Alex Campos