Intocable, Aleks Syntek (tablatura) (ver 3)

Autor: PANDA_IGL | 25976 visualizaciones

e|----------------------------------------13------------13--|
B|------11------11-------11--------11---------11-----11-----|
G|--14------14-------14--------14----------------14---------|
D|----------------------------------------------------------|
A|----------------------------------------------------------|
E|----------------------------------------------------------|

e|-------------13-----------11--10----------11--10----------|
B|--11-----11-----11-----11---------13--11----------13--11--|
G|-----14------------14-------------------------------------|
D|----------------------------------------------------------|
A|----------------------------------------------------------|
E|----------------------------------------------------------|
-
e|--13-----------13---------------13------------11----------|
B|-----11-----11-----11-----11--------11-----11-------------|
G|---------14------------14--------------14-----------------|
D|----------------------------------------------------------|
A|----------------------------------------------------------|
E|----------------------------------------------------------|

e|--10----------11--10--------------------------------------|
B|-----13--11----------13--11-----11------------------------|
G|----------------------------------------------------------|
D|----------------------------------------------------------|
A|----------------------------------------------------------|
E|----------------------------------------------------------|

Calificar esta versión:
Aviso: Este fichero es trabajo propio de su transcriptor y representa su interpretación personal de la canción. El material contenido en esta página es para exclusivo uso privado, por lo que se prohibe su reproducción o retransmisión, así como su uso para fines comerciales.
Más versiones de Intocable, Aleks Syntek
Intocable
acordes
Intocable (ver 2)
acordes
Intocable
tablatura
Intocable (ver 2)
tablatura
Intocable (ver 3)
tablatura
Intocable
teclado
Descubre más canciones de Aleks Syntek