Intocable, Aleks Syntek (tablatura)

Autor: Vipers | 30700 visualizaciones

Hay les ba la tablatura, la sake d´ puro oido, al principio esta bien pero por el final hay algo mal p'ro suena leve.......





-----------12---------       (2 o 3 veces)
------------10--------
------------13---14-----



1-----------12-------------------------
2-----------10------------------------
3------------13--13--13--14--14--14--14





ha se me olvidaba.... si tocan en este otro orden suena como la de  alison , aqui.

--------14-------------
---------11-----------
-------------13-----------

Calificar esta versión:
Aviso: Este fichero es trabajo propio de su transcriptor y representa su interpretación personal de la canción. El material contenido en esta página es para exclusivo uso privado, por lo que se prohibe su reproducción o retransmisión, así como su uso para fines comerciales.
Más versiones de Intocable, Aleks Syntek
Intocable
acordes
Intocable (ver 2)
acordes
Intocable
tablatura
Intocable (ver 2)
tablatura
Intocable (ver 3)
tablatura
Intocable
teclado
Descubre más canciones de Aleks Syntek