Eres Mi Padre, Alejandro Del Bosque (tablatura)

Autor: Anónimo | 18189 visualizaciones

Atención!!!! Cualquier ayuda, comentario, etc.. es muy bien recibido.!!!!

Se ruega, sugiere, instruye que esta tablatura la practiquen
junto a la canción, porque hay que ver los tiempos, uñeteo, etc..

Tablatura para guitarra eléctrica..!!!!

Metrónomo: 102
--------  Intro  --------

con OD o Distorsión, ahí vean uds.. yo la saqué desconectado...

E|----------------------------------------|----------------------------|
B|----------------------------------------|----------------------------|
G|----------------------------------------|----------------------------|
D|---------9--9--X--X--4---X--4---X--4/5--|-5---X--X-------------------|
A|-2---2---7--7--X--X--2---X--2---X--2/3--|-3---X--X---------5--7---5--|
E|-0---0----------------------------------|-----------5-h-7-----5---3--|


E|----------------------------------------|----------------------------|
B|----------------------------------------|----------------------------|
G|----------------------------------------|----------------------------|
D|---------9--9--X--X--4---X--4---X--4/5--|-5--------------------------|
A|-2---2---7--7--X--X--2---X--2---X--2/3--|-3----X-X-7---7---5---------|
E|-0---0----------------------------------|------X-X-5---5---3---------|

2 veces...!!

--------  Fin Intro  --------
Verso:

Al Rey de los siglos, al Dios de mi paz
Por siempre contigo yo quiero estar

E|------------------|
B|------------------|
G|------------------|
D|------------------|
A|--------5--7---5--|
E|-5-h-7-----5---3--|

E5        G5  A5   C5            D5
Por donde tu vayas  yo quiero andar
E5        G5    A5  C5         D5
No importa el tiempo ni el lugar
-------- Fin Verso  --------
Puente:

E|--------5---------|--------7---------|--5--|----------------|
B|--4^5-------------|--7^8-------------|--7--|----------------|
G|------5-----------|------9-----------|--7--|----------------|
D|------------------|------------------|-----|----------------|
A|------------------|------------------|-----|-4-5-5--4-5-x-5-|
E|------------------|------------------|-----|----------------|

           Tu eres mas grande que mi voluntad

E|--------5---------|--------7---------|--5-----|------------|
B|--4^5-------------|--7^8-------------|--7-----|-7^8v7------|
G|------5-----------|------9-----------|--7-----|-------7----|
D|------------------|------------------|--------|---------7--|
A|------------------|------------------|--------|------------|
E|------------------|------------------|--------|------------|
           Tu eres mas fuerte que todo mi amar


--------  Fin Puente  --------
Coro:


E|---------------------|----------------------|
B|----8--10v8--8--8-8--|-----8--10v8--8----8--|
G|-7-------------------|-----------------9----|
D|---------------------|-10-------------------|
A|---------------------|----------------------|
E|---------------------|----------------------|


E|--------10--10--10--|--8--7--------------|
B|-----8--------------|--------10--8----8--|
G|--7-----------------|---------------9----|
D|--------------------|--------------------|
A|--------------------|--------------------|
E|--------------------|--------------------|
2 veces!!!!!

E|------3---------5---|----------------------------|
B|--/5----------------|----------------------------|
G|------------/6------|----------------------------|
D|--------------------|--5-5---5-5-----9-9---7-7---|
A|--------------------|--3-3---3-3-----7-7---5-5---|
E|--------------------|----------------------------|

E|----------------------|
B|------8---------8-----|
G|---7^9---9--7^9----9--|
D|--9-------------------|
A|----------------------|
E|----------------------|

---------  Fin Coro  --------
Verso 2:

E|-------------------|-------------------|-------------------|
B|-------------------|-------------------|-----------5-------|
G|-------------------|-------------------|---------7---7-----|
D|-------------------|------5-7-5--------|-----5^7-----------|
A|-------------------|-5^7---------------|-------------------|
E|-------------------|-------------------|-------------------|

Al Rey de los siglos............ al Dios de mi paz

E|--------3-------|-------------------|-------------------|---------|
B|----------5-----|----------7/8-8-8--|----5-8-5----------|--5--5-5-|
G|------7---------|----------------7--|--7-------7--7--9--|--7--7-7-|
D|--5^7-----------|-------------------|-------------------|--7--7-7-|
A|----------------|-------------------|-------------------|---------|
E|----------------|-------------------|-------------------|---------|

.............Por siempre contigo ...................yo quiero estar

--------  Fin Verso 2  --------
Puente 2:

E|--------5---------|--------7---------|--5--|----------------|
B|--4^5-------------|--7^8-------------|--7--|----------------|
G|------5-----------|------9-----------|--7--|----------------|
D|------------------|------------------|-----|----------------|
A|------------------|------------------|-----|-4-5-5--4-5-x-5-|
E|------------------|------------------|-----|----------------|

           Tu eres mas grande que mi voluntad


E|--------5---------|--------10/12-10-7---|--5----------5----------|
B|--4^5-------------|--7^8--------------8-|----7-5--------7--------|
G|------5-----------|------9--------------|--------7--------7/9-7--|
D|------------------|---------------------|----------7-------------|
A|------------------|---------------------|------------------------|
E|------------------|---------------------|------------------------|
           Tu eres mas fuerte que todo mi amar

--------  Fin Puente 2  --------
Coro 2:

E|---------------------|----------------------|
B|----8--10v8--8--8-8--|-----8--10v8--8----8--|
G|-7-------------------|-----------------9----|
D|---------------------|-10-------------------|
A|---------------------|----------------------|
E|---------------------|----------------------|


E|--------10--10--10--|--8--7--------------|
B|-----8--------------|--------10--8----8--|
G|--7-----------------|---------------9----|
D|--------------------|--------------------|
A|--------------------|--------------------|
E|--------------------|--------------------|
2 veces!!!!!

E|------3---------5---|---------------------------|
B|--/5----------------|---------------------------|
G|------------/6------|---------------------------|
D|--------------------|--5-5---5-5-----9-9---7----|
A|--------------------|--3-3---3-3-----7-7---5----|
E|--------------------|---------------------------|

--------  Fin Coro 2  --------
Instrumental:

E|------------------------------------|------------------|
B|------------------------------------|------------------|
G|------------------------------------|------------------|
D|-------9--9--X--X--4---X--4---X--5--|------------------|
A|-2-2---7--7--X--X--2---X--2---X--3--|--------5---------|
E|-0-0--------------------------------|-5-h-7-----5---3--|

En el solo... apliquen vuestra Adoración!!!!!..

o bien pueden hacer algo similar a esto:

E|---------------|-----------------|--------------|---------------|
B|---------------|-----------------|--------------|---------------|
G|-7/9--7/9-7/9--|-9/11--9/11-9/11-|-11/12--/-16--|-11/12--/---16-|
D|---------------|-----------------|--------------|---------------|
A|-5/7--5/7-5/7--|-7/9---7/9--7/9--|-9/10---/-14--|-9/10---/--14--|
E|---------------|-----------------|--------------|---------------|

y la segunda parte es similar... pongan..!!


--------  Fin Instrumental  --------
Coro 3:

E|---------------------|----------------------|
B|----8--10v8--8--8-8--|-----8--10v8--8----8--|
G|-7-------------------|-----------------9----|
D|---------------------|-10-------------------|
A|---------------------|----------------------|
E|---------------------|----------------------|


E|--------10--10--10--|--8--7--------------|
B|-----8--------------|--------10--8----8--|
G|--7-----------------|---------------9----|
D|--------------------|--------------------|
A|--------------------|--------------------|
E|--------------------|--------------------|
2 veces!!!!!

E|------3---------5---|---------------------------|
B|--/5----------------|---------------------------|
G|------------/6------|---------------------------|
D|--------------------|--5-5---5-5-----9-9---5----|
A|--------------------|--3-3---3-3-----7-7---3----|
E|--------------------|---------------------------|


------------------------------------------------
Agradecimientos a:

Nuestro Dios, su Hijo y su Santo Espíritu.!!!
My esposa Giovy..
Elvyn Rosario (primera transcripción)
Angel Dominguez (segunda transcripción)
A uds. por dejar bendecirse por Dios.!!
Calificar esta versión:
Aviso: Este fichero es trabajo propio de su transcriptor y representa su interpretación personal de la canción. El material contenido en esta página es para exclusivo uso privado, por lo que se prohibe su reproducción o retransmisión, así como su uso para fines comerciales.
Más versiones de Eres Mi Padre, Alejandro Del Bosque
Eres Mi Padre
acordes
Eres Mi Padre
tablatura
Eres Mi Padre
bajo
Descubre más canciones de Alejandro Del Bosque