Eres Mi Padre, Alejandro Del Bosque (bajo)

Autor: Anónimo | 22201 visualizaciones

(Intro)

G|-----------------------------------------------------------------------|
D|-----------------------------------------------------------------------|
A|-----7-5-7-------3-2-3-------7-5-7-------3-2-3-------------------------|
E|-----------------------------------------------------------------------|
B|-5-5---------1-1---------5-5---------1-1-------------------------------|


(Estrofa 1)

     Al rey de los siglos           a Dios de mi paz
G|-----------------------------------------------------------------------|
D|-----------------------------------------------------------------------|
A|-----------------------------------------------------------------------|
E|-----------------------------------------------------------------------|
B|-----------------------------------------------------------------------|

     Por siempre contigo            yo quiero estar
G|-----------------------------------------------------------------------|
D|-----------------------------------------------------------------------|
A|-----------------------------------------------------------------------|
E|-----------------------------------------------------------------------|
B|-----------------------------------------------------------------------|



(Estrofa 2)

       A donde tu vayas             yo quiero andar
G|-----------------------------------------------------------------------|
D|-----------------------------5-----------------------------------------|
A|-------------------------5-7---2-2---------2----5-5 ---------5---7-----|
E|-0-0----------3-----5-5-------------------------------7-7--7---7---0---|
B|-----------------------------------------------------------------------|

   No importa el tiempo             ni el lugar
G|-----------------------------------------------------------------------|
D|-----------------------------7-----------------------------------------|
A|-------------------------5-7---2-2---------2----5-5----------5---------|
E|-0----------3-------5-5-------------------------------7-7--7---7-------|
B|-----------------------------------------------------------------------|



(Puente)

           Tu eres mas grande     que mi voluntad
G|-----------------------------------------------------------------------|
D|-----------------------------------------------------------------------|
A|--2-3-2-3-2-3-2-3----5-7-5-7-5-7-5-7---3-5-3-5-3-5-3-5--3-5-3-5-3-5-3-5|
E|-----------------------------------------------------------------------|
B|-----------------------------------------------------------------------|

           Tu eres mas fuerte     que todo mi amar
G|-----------------------------------------------------------------------|
D|-----------------------------------------------------------------------|
A|--2-3-2-3-2-3-2-3----5-7-5-7-5-7-5-7---3-5-3-5-3-5-3-5--3-5-3-5-3-5-3-5|
E|-----------------------------------------------------------------------|
B|-----------------------------------------------------------------------|



(Coro) Bis

  Tu eres mi Padre, tu eres mi Dios
G|-----------------------------------------------------------------------|
D|-----------------------------------------------------------------------|
A|-----------------------------------------------------------------------|
E|----------2-3-2-3-2-3-2-3----3-5-3-5-3-5-3-5---------------------------|
B|-----------------------------------------------------------------------|

  Tu eres el Gozo, mi amor mi Señor
G|-----------------------------------------------------------------------|
D|-----------------------------------------------------------------------|
A|----------------------------2-3-2-3-2-3-2-3----------------------------|
E|----------5-7-5-7-5-7-5-7----------------------------------------------|
B|-----------------------------------------------------------------------|


  Por ti yo se            que existo        Sin ti no vivo sin ti no estoy
G|-----------------------------------------------------------------------|
D|-----------------------------------------------------------------------|
A|----------5-7-5-7-5-7-5-7-------------------3---3-----3--3-7---7------5|
E|---------------------------3-5-3-5-3-5-3-5-----------------------------|
B|-----------------------------------------------------------------------|

(Arreglo del bass para pasar a la otra estrofa)

G|-----------------------------------------------------------------------|
D|-------5---------------------------------------------------------------|
A|---5-7--------7-5-7---5------------------------------------------------|
E|-7----------------------7-2-0------------------------------------------|
B|-----------------------------------------------------------------------|



(Estrofa 3)

       Al rey de los siglos      al Dios de mi paz
G|-----------------------------------------------------------------------|
D|-------------------------------------------------------------5---------|
A|-----------------------------2-2---------2----5-5 -----5---5---7-------|
E|-----------------------------------------------------7---7-------0-----|
B|-----------------------------------------------------------------------|

   Por siempre contigo                      yo quiero estar
G|-----------------------------------------------------------------------|
D|---------------------------------5-------------------------------------|
A|-----------------------------5-7---7-5--2-2----2--5-5----5---5---------|
E|-----0-------3-------5-5-------------------------------7---7-----------|
B|-----------------------------------------------------------------------|

Go to (Puente)

Go to (Coro)


(Solo)

G|-----------------------------------------------------------------------|
D|------------------------------------------------------7-9-7-9-7-9-7-9--|
A|--2-3-2-3-2-3-2-3---3-5-3-5-3-5-3-5------------------------------------|
E|-------------------------------------5-7-5-7-5-7-5-7-------------------|
B|-----------------------------------------------------------------------|

G|-----------------------------------------------------------------------|
D|----------------------------------------5--5-7-5-7-5-7-5---------------|
A|--2-3-2-3-2-3-2-3---3-5-3-5-3-5-3-5---7--7----------------------3------|
E|---------------------------------------------------------5-------------|
B|-----------------------------------------------------------------------|



(Coro) Final

  Tu eres mi Padre, tu eres mi Dios
G|-----------------------------------------------------------------------|
D|-----------------------------------------------------------------------|
A|-----------------------------------------------------------------------|
E|----------2-3-2-3-2-3-2-3----3-5-3-5-3-5-3-5---------------------------|
B|-----------------------------------------------------------------------|

  Tu eres el Gozo, mi amor mi Señor
G|-----------------------------------------------------------------------|
D|-----------------------------------------------------------------------|
A|----------------------------2-3-2-3-2-3-2-3----------------------------|
E|----------5-7-5-7-5-7-5-7----------------------------------------------|
B|-----------------------------------------------------------------------|

  Tu eres mi Padre, tu eres mi Dios
G|-----------------------------------------------------------------------|
D|-----------------------------------------------------------------------|
A|----------3-5-3-5-3-5-3-5----------------------------------------------|
E|-----------------------------3-5-3-5-3-5-3-5---------------------------|
B|-----------------------------------------------------------------------|

  Tu eres el Gozo, mi amor mi Señor
G|-----------------------------------------------------------------------|
D|-----------------------------------------------------------------------|
A|----------------------------2-3-2-3-2-3-2-3----------------------------|
E|----------5-7-5-7-5-7-5-7----------------------------------------------|
B|-----------------------------------------------------------------------|

  Por ti yo se            que existo       Sin ti no vivo sin ti no estoy
G|-----------------------------------------------------------------------|
D|-----------------------------------------------------------------------|
A|---------5-7-5-7-5-7-5-7------------------3---3-----3--3-7---7---------|
E|--------------------------2-4-2-4-2-4-2-4----------------------------2-|
B|-----------------------------------------------------------------------|

Que Dios los Bendiga, me encuentro sacando mas charts para Bass.
Trabajando en nuevas aportaciones.

Por: Gonzalo E. Martinez
Centro Educativo Renacimiento A.R.
Ensenada, Baja California
Mexico
Calificar esta versión:
Aviso: Este fichero es trabajo propio de su transcriptor y representa su interpretación personal de la canción. El material contenido en esta página es para exclusivo uso privado, por lo que se prohibe su reproducción o retransmisión, así como su uso para fines comerciales.
Más versiones de Eres Mi Padre, Alejandro Del Bosque
Eres Mi Padre
acordes
Eres Mi Padre
tablatura
Eres Mi Padre
bajo
Descubre más canciones de Alejandro Del Bosque