Esta Vez, 6 Voltios (tablatura) (ver 2)

Autor: Anónimo | 41189 visualizaciones

.... = Palm Mute

|---------------------|--------|
|---------------------|--------|
|----------3--4--6----|--------|
|-6--4--2--3--4--6--4-|-11-9-8-|
|-6--4--2--1--2--4--4-|-11-9-8-|
|-4--2--0-----------2-|-9--7-6-|
                        ......

|---------------------|---|
|---------------------|---|
|----------3--4--6----|---|
|-6--4--2--3--4--6--4-|-4-|
|-6--4--2--1--2--4--4-|-4-|
|-4--2--0-----------2-|-2-|


 G#5            E5            B5            F#5
|------------------------------------------------------|
|------------------------------------------------------|
|-------333-444-99999-444-333-44444-333-444--------6-4-|
|-66666-xxx-xxx-xxxxx-xxx-xxx-xxxxx-xxx-xxx-444444-x-x-| x2
|-xxxxx-111-222-77777-222-111-22222-111-222-xxxxxx-4-2-|
|-44444-------------------------------------222222-----|


G#5                     E5              B5          F#5  F#5-E5-F#5
Pierdes tu tiempo preocupandote por tu vida por tu salud
E5                     B5              E5      F#5   C#5
Mientras yo estare destruyendome nada suele matarme


 Esta vez no tengo temor, esta vez
|----------------------------------------|
|----------------------------------------|
|------------------4--4------------------|
|-6--6----2--2-----4-4------4--4---4-----|
|-6-6-----2-2------2--------4-4----4-4-2-|
|-4-------0-----------------2------2-----|

G#5             E5                 B5      F#5
Vivire el momento dire lo que siento descompresion

 G#5            E5            B5            F#5
|------------------------------------------------------|
|------------------------------------------------------|
|-------333-444-99999-444-333-44444-333-444--------6-4-|
|-66666-xxx-xxx-xxxxx-xxx-xxx-xxxxx-xxx-xxx-444444-x-x-| x2
|-xxxxx-111-222-77777-222-111-22222-111-222-xxxxxx-4-2-|
|-44444-------------------------------------222222-----|


G#5                   E5                  B5
Pierdo mi tiempo preocupandome por cada detalle
               F#5   F#5-E5-F#5
Cada cosa por hacer
E5              B5                    E5              F#5    C#5
No puedo dejar todo al azar pero esta vez nada me perturbara


 Esta vez no siento dolor, esta vez
|----------------------------------------|
|----------------------------------------|
|------------------4--4------------------|
|-6--6----2--2-----4-4------4--4---4-----|
|-6-6-----2-2------2--------4-4----4-4-2-|
|-4-------0-----------------2------2-----|

G#5             E5                 B5      F#5
Vivire el momento dire lo que siento descompresion


|-------------|---------|-----------|--------|
|-------------|---------|-----------|--------|
|----8-9-11-9-|-9-8-6-4-|-8-9-11-11-|--------|
|-6--8-9-11-9-|-9-8-6-4-|-8-9-11-11-|-11-9-8-|
|-6--6-7-9--7-|-7-6-4-2-|-6-7-9--9--|-11-9-8-|
|-4-----------|---------|-----------|-9--7-6-|
                                      ......

  G#5              E5              B5               F#5
|---------------------------------------------------------------------|
|-99999---------------------------------------------------------------|
|-xxxxx-888-999-11-99999-999-888-6-44444-888-999-11-1111111111--------|
|-66666-xxx-xxx-x--xxxxx-xxx-xxx-x-xxxxx-xxx-xxx-x--x-x-x-x-x---------|
|-------666-777-9--77777-777-666-4-22222-666-777-9--9-9-9-9-9---------|
|--------------------------------------------------------------9--7-6-|

  G#5              E5            B5            F#5          C#5 B5 A#5
|---------------------------------------------------------------------|
|---------------------------------------------------------------------|
|-----------------99999-------66-44444-888-999-111111111111-----------|
|-66666-99-88-99--xxxxx-99-88-xx-xxxxx-xxx-xxx-x-x-x-x-x-x------------|
|-xxxxx-xx-xx-xx--77777-xx-xx-44-22222-666-777-9-9-9-9-9-9------------|
|-44444-77-66-77--------77-66-------------------------------9---7---6-|
                                                            .........

Manejo prudente tengo cuidado de no derramar mi cerveza
|---------------------------------------------------|
|---------------------------------------------------|
|---------------------------4-4-4-------------------|
|-6-6-6--------2-2-2--------4-4-4--------4-4-4---4--|
|-6-6-6--------2-2-2-2-1----2-2-2-1-2----4-4-4---4--|
|-4-4-4-6-7----0-0-0---------------------2-2-2---2--|


G#5                E5                     B5    F#5
No te escucho te ignoro si es que me caes mal
G#5                     E5              B5          F#5  F#5-E5-F#5
Pierdes tu tiempo preocupandote por tu vida por tu salud
E5                     B5              E5      F#5   C#5
Mientras yo estare destruyendome nada suele matarme
G#5      E5        B5     F#5
Esta vez no tengo temor, esta vez
G#5             E5                 B5      F#5
Vivire el momento dire lo que siento descompresion

|---------------------|--------|
|---------------------|--------|
|----------3--4--6----|--------|
|-6--4--2--3--4--6--4-|-11-9-8-|
|-6--4--2--1--2--4--4-|-11-9-8-|
|-4--2--0-----------2-|-9--7-6-|
                        ......


|-------------|---------|-----------|--------|----|
|-------------|---------|-----------|--------|----|
|----8-9-11-9-|-9-8-6-4-|-8-9-11-11-|--------|----|
|-6--8-9-11-9-|-9-8-6-4-|-8-9-11-11-|-11-9-8-|-6--|
|-6--6-7-9--7-|-7-6-4-2-|-6-7-9--9--|-11-9-8-|-6--|
|-4-----------|---------|-----------|-9--7-6-|-4--|
                                      ......
Calificar esta versión:
Aviso: Este fichero es trabajo propio de su transcriptor y representa su interpretación personal de la canción. El material contenido en esta página es para exclusivo uso privado, por lo que se prohibe su reproducción o retransmisión, así como su uso para fines comerciales.
Más versiones de Esta Vez, 6 Voltios
Esta Vez
tablatura
Esta Vez (ver 2)
tablatura
Descubre más canciones de 6 Voltios