Esta Vez, 6 Voltios (tablatura)

Autor: Anónimo | 32306 visualizaciones

Notas:

C#5  E5  G#5 F#5 B5  A#5
|---|---|---|---|---|---|
|---|---|---|---|---|---|
|-6-|---|---|---|-4-|-3-|
|-6-|-2-|-6-|-4-|-4-|-3-|
|-4-|-2-|-6-|-4-|-2-|-1-|
|---|-0-|-4-|-2-|---|---|

                        palm mute
|---------------------|----------|
|---------------------|----------|
|----------3--4--6----|----------|
|-6--4--2--3--4--6--4-|----------|
|-6--4--2--1--2--4--4-|--4--2--1-|
|-4--2--0-----------2-|----------|

|---------------------|---|
|---------------------|---|
|----------3--4--6----|-6-|
|-6--4--2--3--4--6--4-|-6-|
|-6--4--2--1--2--4--4-|-4-|
|-4--2--0-----------2-|---|

 Si no me equivoco esta parte debe de ser asi

|------------------------------------------------------|
|------------------------------------------------------|
|-------333-444-99999-444-333-44444-333-444--------6-4-|
|-66666-XXX-XXX-XXXXX-XXX-XXX-XXXXX-XXX-XXX-444444-X-X-|
|-XXXXX-111-222-77777-222-111-22222-111-222-XXXXXX-4-2-|
|-44444-------------------------------------222222-----|

|------------------------------------------------------|
|------------------------------------------------------|
|-------333-444-99999-444-333-44444-333-444--------6-4-|
|-66666-XXX-XXX-XXXXX-XXX-XXX-XXXXX-XXX-XXX-444444-X-X-|
|-XXXXX-111-222-77777-222-111-22222-111-222-XXXXXX-4-2-|
|-44444-------------------------------------222222-----|


G#5                     E5              B5          F#5   F#5-E5-F#5
Pierdes tu tiempo preocupandote por tu vida por tu salud
E5                    B5              E5          F#5    F#5
Mientras yo estare destruyendome nada suele matarme


 Esta vez no tengo temor, esta vez
|-----------------------------------------|
|-----------------------------------------|
|-----------------------4-----------------|
|-----6-------2-------4---------4---------|
|---6-------2-------2---------4-----4--2--|
|-4-------0-----------------2-------------|

G#5             E5                 B5      F#5       F#5
Vivire el momento dire lo que siento descompresion

|------------------------------------------------------|
|------------------------------------------------------|
|-------333-222-99999-444-333-44444-333-444--------6-4-|
|-66666-XXX-XXX-XXXXX-XXX-XXX-XXXXX-XXX-XXX-444444-X-X-|
|-XXXXX-111-222-77777-222-111-22222-111-222-XXXXXX-4-2-|
|-44444-------------------------------------222222-----|

|------------------------------------------------------|
|------------------------------------------------------|
|-------333-222-99999-444-333-44444-333-444--------6-4-|
|-66666-XXX-XXX-XXXXX-XXX-XXX-XXXXX-XXX-XXX-444444-X-X-|
|-XXXXX-111-222-77777-222-111-22222-111-222-XXXXXX-4-2-|
|-44444-------------------------------------222222-----|


G#5                   E5                  B5
Pierdo mi tiempo preocupandome por cada detalle
               F#5   F#5-E5-F#5
Cada cosa por hacer
E5             B5                    E5              F#5      F#5
No puedo dejar todo al azar pero esta vez nada me perturbara


 Esta vez no siento dolor, esta vez

|-----------------------------------------|
|-----------------------------------------|
|-----------------------4-----------------|
|-----6-------2-------4---------4---------|
|---6-------2-------2---------4-----4--2--|
|-4-------0-----------------2-------------|


G#5             E5                 B5       F#5      F#5
Vivire el momento dire lo que siento descompresion

|-------------|---------|-----------|-----------|
|-------------|---------|-----------|-----------|
|----8-9-11-9-|-9-8-6-4-|-8-9-11-11-|-----------|
|-6--8-9-11-9-|-9-8-6-4-|-8-9-11-11-|-----------|
|-6--6-7-9--7-|-7-6-4-2-|-6-7-9--9--|-----------|
|-4-----------|---------|-----------|--9--7--6--|
                                      Palm mute

|------------------------------------------------|
|------------------------------------------------|
|-13--8-9-11---9--9-8-6---4--8-9-11--------------|
|-XX--X-X--X---X--X-X-X---X--X-X--X----11--9--8--|
|-11--6-7--9---7--7-6-4---2--6-7--9-----X--X--X--|
|---------------------------------------9--7--6--|

|--------------------------------------------|
|--------------------------------------------|
|------------9-------------8-9-11------------|
|-6---9-8-9--X--9-8-11--9--X-X--X------------|
|-X---X-X-X--7--X-X--X--X--6-7--9------------|
|-4---7-6-7-----7-6--9--7----------9--7-6---|
                                   Palm mute


Manejo prudente tengo cuidado de no derramar mi cerveza
|---------------------------------------------------|
|---------------------------------------------------|
|---------------------------4-4-4-------------------|
|-6-6-6--------2-2-2--------4-4-4--------4-4-4---4--|
|-6-6-6--1-2---2-2-2-2-1----2-2-2-1-2----4-4-4---4--|
|-4-4-4--------0-0-0---------------------2-2-2---2--|


G#5                E5                     B5     F#5
No te escucho te ignoro si es que me caes mal
G#5                     E5              B5          F#5   F#5-E5-F#5
Pierdes tu tiempo preocupandote por tu vida por tu salud
E5                    B5              E5      F#5     F#5
Mientras yo estare destruyendome nada suele matarme
G#5      E5        B5     F#5
Esta vez no tengo temor, esta vez
G#5             E5                 B5      F#5
Vivire el momento dire lo que siento descompresión


|---------------------|----------|
|---------------------|----------|
|----------3--4--6----|----------|
|-6--4--2--3--4--6--4-|----------|
|-6--4--2--1--2--4--4-|--4--2--1-|
|-4--2--0-----------2-|----------|
                        Palm mute

|-------------|---------|-----------|-----------|------|
|-------------|---------|-----------|-----------|------|
|----8-9-11-9-|-9-8-6-4-|-8-9-11-11-|-----------|------|
|-6--8-9-11-9-|-9-8-6-4-|-8-9-11-11-|-----------|---6--|
|-6--6-7-9--7-|-7-6-4-2-|-6-7-9--9--|-----------|---6--|
|-4-----------|---------|-----------|--9--7--6--|---4--|
                                      Palm mute

esta es una corrección del tab anterior cualkier duda o comentario
k tengan solo escriban a mi mail
Calificar esta versión:
Aviso: Este fichero es trabajo propio de su transcriptor y representa su interpretación personal de la canción. El material contenido en esta página es para exclusivo uso privado, por lo que se prohibe su reproducción o retransmisión, así como su uso para fines comerciales.
Más versiones de Esta Vez, 6 Voltios
Esta Vez
tablatura
Esta Vez (ver 2)
tablatura
Descubre más canciones de 6 Voltios