En El Olvido, 6 Voltios (tablatura) (ver 2)

Autor: Anónimo | 22126 visualizaciones

intro:

bajo:
  F#5            C#5         B5          C#5

g------------------------(2x)---------(2x)--------(2x)--
d---------(2x)-------3-3----------1-1---------3-3-------
a-----1-1--------4-4----------2-2---------4-4-----------
E-2-2---------------------------------------------------


e---------------------------------------------------
b---------------------------------------------------
g----------------(2x)----------------(2x)-----------
d-4---4--6-8-6-4-------6-8-6-8-8-8-6----------------
a---------------------------------------------------
E---------------------------------------------------

F#5                        C#5
Estoy tratando de encontrar la solución en otra
B5                   C#5
relacíon, pero no pasa nada, nunca funciona.
F#5         C#5
Estoy solo, aburrido,
B5          C#5
pensando en tí otra vez.

BAJO:
g---------------------------
d--------3-5----------------
a--4--6---------------------
E---------------------------

F#5                    C#5       B5                C#5               
Pero nunca me amaste, me dejaste caer en el olvido, no puedo olvidarte.
F#5    C#5               B5               C#5
Porque tuvo que ser así, no lo entiendo. No lo entiendo.

e---------------------------------------------------
b---------------------------------------------------
g----------------(2x)----------------(2x)-----------
d-4---4--6-8-6-4-------6-8-6-8-8-8-6----------------
a---------------------------------------------------
E---------------------------------------------------

F#5                   C#5
Todo lo que había por ver está muy claro y ya se
B5                         C#5
perdio todas las esperanzas de que vuelvas a ser mia.
F#5         C#5
Estoy solo, confundido,
B5          C#5
pensando en tí otra vez.

BAJO:
g---------------------------
d--------3-5----------------
a--4--6---------------------
E---------------------------

F#5                    C#5        B5                C#5               
Pero nunca me amaste, me dejaste caer en el olvido, no puedo olvidarte.
F#5     C#5               B5             C#5
Porque tuvo que ser así, no lo entiendo. No lo entiendo.             

e---------------------------------------------
b---------------------------------------------
g-----------------(2x)-----------------------------
d--4---4-6-4--3--------4--4-6-4--4-6-4---3----
a--------------------------------------------------
E-------------------------------------------------

g------------------------------------(2x)
D--------------3-3-----1-1-----3-3-------
a-----1-1--4-4-----2-2-----4-4-----------
E-2-2------------------------------------



F#5               C#5              B5                     C#5
No soy un cagado, no soy el mejor, no soy el indicado para tener tu corazón.
F#5                 C#5             B5                    C#5                B5  C#5
No quedan rencores, no queda dolor, queda aceptarlo y revotar en mi corazón.



F#5      C#5             B5              C#5
Porque tuvo que ser así, no lo entiendo. No lo entiendo.
B5      C#5      B5      C#5
No lo entiendo, mejor dejarte en el olvido.


B5      C#5      B5      C#5              F#5
No lo entiendo, mejor dejarte en el olvido.

Fuente original: LaCuerda
Colaborador original: DIEGO ANCHIVILCA LECTOR [dpanfilo@hotmail.com]
Calificar esta versión:
Aviso: Este fichero es trabajo propio de su transcriptor y representa su interpretación personal de la canción. El material contenido en esta página es para exclusivo uso privado, por lo que se prohibe su reproducción o retransmisión, así como su uso para fines comerciales.
Más versiones de En El Olvido, 6 Voltios
En El Olvido
acordes
En El Olvido
tablatura
En El Olvido (ver 2)
tablatura
En El Olvido (ver 3)
tablatura
En El Olvido
bajo
Descubre más canciones de 6 Voltios