En El Olvido, 6 Voltios (bajo)

Autor: Anónimo | 44370 visualizaciones

Este es el intro, antes del punteo

    F#                                    F# *                           
4------------------------------------------------------------/
5----4-4-4-4-----4-4-4-4------4-4-4-4-----4-4-4-4----/
6--2-------------2--------------1------------1-------------/

       Bm                                C# 5
4------4-4-4-4-----4-4-4-4-----6-6-6-6----6-6-6-6------------3-6-----/
5----2------------2-------------4-----------4---------------4—6-------4-/
6----------------------------------------------------------------------------/

De ahí sigue el punteo de entrada

Luego esta es la parte de  las estrofas


      F#                        F# *       
      Estoy tratando de encontrar la solución en otra
6—2x8------------------1x8

       Bm                  C#5       
       relación  pero no pasa nada nunca funciona
5---2x8--------------4x8

Así siguen todas las demás estofas

En el coro es así


       F#                                     F# *            A# 5       
       pero  tu nunca me amaste me dejaste caer en le olvido
6—-2x8--------------------------1x8----------6x8-----

        Bm          C# 5
        no puedo olvidarte
5----2x4--------4x4

       F#             F# *              
        por que tuvo que ser así
6—-2x8-------1x8

       D#5                  Bm     C# 5
       no lo entiendo  no lo entiendo
5----6x8---------------2x4---2x4



de ahí sigue esto en  el punteo medio

     F#           F# *            A# 5       Bm             C# 5
3---------------------------------------------4------------6--------/
4------4-----------4-----------8----------4---4--------6---6-----/
5----4---4------4---4-------8—8-----2-------------4-----------/
6—2----------1-----------6--------------------------------------/


     F#           F# *            D# 5       Bm             C# 5
3------------------------------8--------------4------------6--------/
4------4-----------4--------8---8---------4---4--------6---6-----/
5----4---4------4---4----6-------------2-------------4-----------/
6—2----------1--------------------------------------------------/


3-------------6---------6---------4-----------6----/          se repite
4--------4-4---4---3-3--3—4-4--4----6-6---6--/            2 veces

 
Así son los acordes 

Saludos para toda la comunidad punk 


Están con los acordes  F#        F# *       Bm      C# 5

Fuente original: LaCuerda
Colaborador original: tito perez [titope7@hotmail.com]
Calificar esta versión:
Aviso: Este fichero es trabajo propio de su transcriptor y representa su interpretación personal de la canción. El material contenido en esta página es para exclusivo uso privado, por lo que se prohibe su reproducción o retransmisión, así como su uso para fines comerciales.
Más versiones de En El Olvido, 6 Voltios
En El Olvido
acordes
En El Olvido
tablatura
En El Olvido (ver 2)
tablatura
En El Olvido (ver 3)
tablatura
En El Olvido
bajo
Descubre más canciones de 6 Voltios