Día Plástico, 6 Voltios (tablatura)

Autor: Anónimo | 15445 visualizaciones

6voltios --dia plastico
   intro
E------------------------------------------------
B------------------------------------------------
G------------------------------------------------
D------------------------------------------------x2
A---121------121--121-----124--------------------
E-0-----22------4-------44-----------------------

 intro part2

E-------------------------------------------------
B-------------------------------------------------
G----44----33333--------33-44---------------------
D-22-44-44-33333-----66-33-44-66666---------------
A-22-22-44-11111-----66-11-22-66666----------------
E-00----22-----------44-------44444----------------
             ...                ...

intro part3

E--------------------------------------------------
B--------------------------------------------------
G--9--4-----333---8--3--4--------------------------
D--x--x--4--x33---x--x--x--666-------xxxx----------
A--7--2--x--111---6--1--2--x66-------xxxx----------
E--------2-----------------444-------xxxx----------
             ..             ..
 verso(indesisciones...)
E--------------------------------------------------------------------------
B--------------------------------------------------------------------------
G------------------------------------------------4444----------------------
D---222222244444444666666666666-------2222244444-4444-6666-4~-2222--44444-
A---222222244444444666666666666--x2---2222244444-2222-6666-4~-2222--44444-
E---000000022222222444444444444-------0000022222------4444-2~-0000--22222-
    ..................... .. ..       ..........                     .....

coro(dia plastico........)

E-------------------------------------------------
B-------------------------------------------------
G----------4~-------------------------------------
D--2~--4~--4~--6-4~---2~--4~--6~--4~--2~--4~------
A--2~--4~--2~--6-4~---2~--4~--6~--4~--2~--4~------
E--0~--2~------4-2~---0~--2~--4~--2~--0~--2~------

intermedio1(haerlo lento)



E-------------------------------------------------
B-------------------------------------------------
G-----33-44------33-44-----33-44----66-44---------
D-22--33-44--44--33-44--66-33-44-66-66-44---------
A-22--11-22--44--11-22--66-11-22-66-44-22---------
E-00---------22---------44-------44---------------


repetir intro part2
repetir intro part3
repetir verse
repetir coro
repetir intermedio1(hacerlo rapido)
repetir intro part1


parte del bajo

g--------------------------------------------------
D--------------------------------------------------
A-00-22----44----11-22-----77-22----11--66-11-22---
E-------22----44-------44--------22--------------44

interlude 2
E----------------------------------------------
B----------------------------------------------
G--9--4-----3b---8--3--4-----------------------
D--x--x--4--xb---x--x--x-6b--------xxxx--------
A--7--2--x--1b---6--1--2-xb--------xxxx--------
E--------2-------------- 4b--------xxxx--------


repetir coro

...= palmute
b= bent estirar
~ = dejar sonar

buena eso es todo la tab esta 100% correcta ps cualkier
we mi msn es punk_ksm@... hagan sus pedidos jajajja puxa
tios nos digan ke no sale otra cosa es ke no sepan leer ps
esta para ke se luzcan jajajaja
Calificar esta versión:
Aviso: Este fichero es trabajo propio de su transcriptor y representa su interpretación personal de la canción. El material contenido en esta página es para exclusivo uso privado, por lo que se prohibe su reproducción o retransmisión, así como su uso para fines comerciales.
Más versiones de Día Plástico, 6 Voltios
Día Plástico
acordes
Día Plástico
tablatura
Día Plástico
bajo
Descubre más canciones de 6 Voltios