Día Plástico, 6 Voltios (bajo)

Autor: Anónimo | 17552 visualizaciones

6 voltios - dia plastico

Intro



g--------------------------------------------------
D--------------------------------------------------
A---121------121--121-----124----------------------   x2
E-0-----22------4-------44-------------------------

Intro parte 2


g---------------------------------------------------
D---------------------------------------------------
A----22----44----11-22-----77-22----11--66-11-22----
E-00----22----44-------44--------22--------------44-


Verso(indesisciones...)

g-------------------------------------------------------------------------
D-------------------------------------------------------------------------
A--------------------------------x2--------------2222---------------------
E---000000022222222444444444444-------0000022222------4444-2~-0000--22222-



Coro(dia plastico...)

g-------------------------------------------------
D-------------------------------------------------
A----------2~-------------------------------------
E--0---2~------4-2~---0---2~--4~--2~--0---2~------


Intermedio 1(hacerlo lento)

g--------------------------------------------------
D--------------------------------------------------
A-----1--2--------1--2---------1--2-----4--2-------
E-0----------22-------------4--------44------------



Solo de bajo

g---------------------------------------------------
D---------------------------------------------------
A----22----44----11-22-----77-22----11--66-11-22----   x2
E-00----22----44-------44--------22--------------44-

Coro(final)

g-------------------------------------------------
D-------------------------------------------------
A----------2~-------------------------------------
E--0---2~------4-2~---0---2~--4~--2~--0---2~------

saludos a la promo ambroise 2008 del xampa :D!
Calificar esta versión:
Aviso: Este fichero es trabajo propio de su transcriptor y representa su interpretación personal de la canción. El material contenido en esta página es para exclusivo uso privado, por lo que se prohibe su reproducción o retransmisión, así como su uso para fines comerciales.
Más versiones de Día Plástico, 6 Voltios
Día Plástico
acordes
Día Plástico
tablatura
Día Plástico
bajo
Descubre más canciones de 6 Voltios