Amor Suicida, 6 Voltios (tablatura)

Autor: Anónimo | 41454 visualizaciones

Notas:
 G5  B5  E5  C5  F#5
|---|---|---|---|---|
|---|---|---|---|---|      ...... = palm mute
|---|-4-|---|-5-|---|
|-5-|-4-|-2-|-5-|-4-|
|-5-|-2-|-2-|-3-|-4-|
|-3-|---|-0-|---|-2-|

______________________________________________________________

G5             B5     E5     C5
Ella se kiere matar y yo estar con ella
G5     F#5      C5            G5
Amor suicida contigo la paso mejor
G5             B5       E5      C5
Si ella kiere morir yo morir en sus brazos
G5     F#5      C5           G5
Me gustaria dejarme llevar por ti


  G5     B5     E5     C5     G5     F#5     C5     G5
|----------------------------------------------------------|
|----------------------------------------------------------|
|-12121212-14-121212-16-14-121212-14141414-9999-16-14-12---|
|--x-x-x-x--x--x-x-x--x--x--x-x-x--x-x-x-x-xxxx--x--x--x---|
|-10101010-12-101010-14-12-101010-12121212-7777-14-12-10---|
|----------------------------------------------------------|

G5         B5            E5           C5
Por ella perdi la cuenta de six packs de cerveza
G5     F#5      C5            G5
Amor suicida contigo la paso mejor
G5       B5       E5           C5
Ella me dijo que mejor no me emocione
G5    F#5    C5            G5
Aun espero salirme de tu camino
B5 B5        E5 E5    B5 B5         E5
el daño esta hecho    ahora ya te puedes ir


  C5     G5     B5     E5   C5     G5    B5     E5 E5
|-----------------------------------------------|
|-----------------------------------------------|
|-121212121212-1414-121212121212121212-14141414-|
|--x-x-x-x-x-x--x-x--x-x-x-x-x-x-x-x-x--x-x-x-x-|
|-101010101010-1212-101010101010101010-12121212-|
|-----------------------------------------------|
   y olvidar olvidarte y olvidar olvidarme



|---------|---------|---------|
|---------|---------|---------|
|---------|---------|-----5---|
|-5-5--5--|-2-2--5--|-5-4-5-5-|  x2
|-5-5---2-|-2-2---3-|-5-4-3-5-|
|-3-3-----|-0-0-----|-3-2---3-|
                      .......

|-------------------------------------------------------------|
|-------------------------------------------------------------|
|-------------------------------------------------------------|
|-555-------555-------444-------444-------222----0--222--2-0--|
|-555--4-5--555--4-5--444--4-5--444--5-4--222--4----222-------|
|-333-------333-------222-------222-------000-------000-------|
  ...       ...       ...       ...       ...       ...


|----------------------------------------------------|
|----------------------------------------------------|
|--------------------4-----------4-------------------|
|-------4-5-7-5--5-7----4-5-4--4---7-5--05-07-09-05~-|
|-3-5-7----------------------------------------------|
|----------------------------------------------------|


G5          B5       E5     C5
Ella ahora esta muy lejos y yo muy solo
G5        F#5    C5        G5
Con una maldita miseria emocional
G5       B5             E5         C5
Ella se fue y dejo la muerte en mi vida
G5     F#5    C5        G5
Amor suicida ahora te maldigo
B5            E5     B5             E5   E5 E5
El daño esta hecho  ahora te puedes ir


  C5     G5     B5     E5   C5     G5    B5     E5 E5
|-----------------------------------------------|
|-----------------------------------------------|
|-121212121212-1414-121212121212121212-14141414-|
|--x-x-x-x-x-x--x-x--x-x-x-x-x-x-x-x-x--x-x-x-x-|
|-101010101010-1212-101010101010101010-12121212-|
|-----------------------------------------------|
   y olvidar olvidarte y olvidar olvidarme
Calificar esta versión:
Aviso: Este fichero es trabajo propio de su transcriptor y representa su interpretación personal de la canción. El material contenido en esta página es para exclusivo uso privado, por lo que se prohibe su reproducción o retransmisión, así como su uso para fines comerciales.
Más versiones de Amor Suicida, 6 Voltios
Amor Suicida
acordes
Amor Suicida
tablatura
Descubre más canciones de 6 Voltios