Amor Suicida, 6 Voltios (acordes)

Autor: -.-niko-.- | 30078 visualizaciones

b5c5e5fsos5g5
 
Notas:
 G5  B5  E5  C5  F#5
|---|---|---|---|---|
|---|---|---|---|---|      ...... = palm mute
|---|-4-|---|-5-|---|
|-5-|-4-|-2-|-5-|-4-|
|-5-|-2-|-2-|-3-|-4-|
|-3-|---|-0-|---|-2-|

______________________________________________________________

G5             B5     E5     C5
Ella se kiere matar y yo estar con ella
G5     F#5      C5            G5
Amor suicida contigo la paso mejor
G5             B5       E5      C5
Si ella kiere morir yo morir en sus brazos
G5     F#5      C5           G5
Me gustaria dejarme llevar por ti


  G5     B5     E5     C5     G5     F#5     C5     G5
|-33333333-5-33333333-7-5-33333333-555555--------7-5-3333--|
|-----------------------------------------444444-----------|
|----------------------------------------------------------|
|----------------------------------------------------------|
|----------------------------------------------------------|
|----------------------------------------------------------|

G5         B5            E5           C5
Por ella perdi la cuenta de six packs de cerveza
G5     F#5      C5            G5
Amor suicida contigo la paso mejor
G5       B5       E5           C5
Ella me dijo que mejor no me emocione
G5    F#5    C5            G5
Aun espero salirme de tu camino
B5 B5        G5 G5    B5 B5         G5
el daño esta hecho    ahora ya te puedes ir


G5    B5    E5    C5    G5    F#5    C5    G5     G5 G5
|-3333333333333-555-33333333333333333333-555555-|
|-----------------------------------------------|
|-----------------------------------------------|
|-----------------------------------------------|
|-----------------------------------------------|
|-----------------------------------------------|
   y olvidar olvidarte y olvidar olvidarme



|---------|---------|---------|
|---------|---------|---------|
|---------|---------|-----5---|
|-5-5--5--|-4-4--5--|-5-4-5-5-|  x2
|-5-5---5-|-4-4---3-|-5-4-3-5-|
|-3-3-----|-2-2-----|-3-2---3-|
                      .......

|-------------------------------------------------------------|
|-------------------------------------------------------------|
|-------------------------------------------------------------|
|-555-------555-------444-------444-------555-------555-------|
|-555--3-5--555--3-5--444--3-5--444--5-3--555--3-5--555--7-5--|
|-333-------333-------222-------222-------333-------333-------|
  ...       ...       ...       ...       ...       ...


|----------------------------------------------------|
|----------------------------------------------------|
|----------------------------------------------------|
|---------5-7-5--5-7-9--4-5-4--5-9-7-5---5--7--9---5-|
|---5-7---------------------------------5--5--5------|
|-3--------------------------------------------------|


G5          B5       E5     C5
Ella ahora esta muy lejos y yo muy solo
G5        F#5    C5        G5
Con una maldita miseria emocional
G5       B5             E5         C5
Ella se fue y dejo la muerte en mi vida
G5     F#5    C5        G5
Amor suicida ahora te maldigo
B5            G5     B5             G5   G5 G5
El daño esta hecho  ahora te puedes ir


G5    B5    E5    C5    G5    F#5    C5    G5
|-3333333333333-555-33333333333333333333-555555-|
|-----------------------------------------------|
|-----------------------------------------------|
|-----------------------------------------------|
|-----------------------------------------------|
|-----------------------------------------------|
   y olvidar olvidarte y olvidar olvidarme
______________________________________________________________


bueno ps ta bien facil: toda la cancion
es un circulo de G5-B5-E5-C5-G5-F#5-C5-G5 solo q unos tan en
palm mute otros sin palmute...  
Calificar esta versión:
Aviso: Este fichero es trabajo propio de su transcriptor y representa su interpretación personal de la canción. El material contenido en esta página es para exclusivo uso privado, por lo que se prohibe su reproducción o retransmisión, así como su uso para fines comerciales.
Más versiones de Amor Suicida, 6 Voltios
Amor Suicida
acordes
Amor Suicida
tablatura
Descubre más canciones de 6 Voltios