Te Fuiste, 4 Y Medio (tablatura) (ver 2)

Autor: david_pxndx | 23230 visualizaciones

e|---------------------------------|
B|--3--3—-3h2--2h3--3--3—-3h2—-2h3-|
G|---------------------------------|
D|---------------------------------|x2
A|--2--2--2-2----------------------|
E|------------------3--3--3-3------|


yaaa... ya no stas aki.... (kn P.M.)
e|------------------|
B|------------------|
G|--77--66--77--66--|
D|--77--66--77--66--|
A|--55--44--55--44--|
E|------------------|


chekeen bn kmo va st pedazo! ieva palm mute
e|--------------------------|
B|--------------------------|
G|--777--66666--777--66666--|
D|--777--66666--777--66666--|x2
A|--555--44444--555--44444--|
E|--------------------------|


luego va esto:
e|---------------------|---------------|
B|---------------------|---------------|
G|--77--99--1111111111-|-77--99--77777-|
D|--77--99--1111111111-|-77--99--77777-|x2
A|--55--77--9-9-9-9-9--|-55--77--55555-|
E|---------------------|---------------|


verso
no un momento mas i tu ia no staras..... (kn p.m.)
e|---------------|
B|---------------|
G|--7777---6666--|
D|--7777---6666--|x2
A|--5555---4444--|
E|---------------|


prometiste aier.........      i la otra guitarra hace esto:
e|--------------------|       e|-----------------------|
B|--------------------|       B|--2-3-2-3-3--2-3-2-3-3-|
G|---7777777--6666666-|       G|-----------------------|
D|---7777777--6666666-|x2     D|-----------------------|x2
A|---5555555--4444444-|       A|-----------------------|
E|--------------------|       E|-----------------------|


xq.... si stavamos nosotros.......
e|---------------|
B|---------------|
G|--7777---6666--|
D|--7777---6666--|x2
A|--5555---4444--|
E|---------------|


ahora viene así: (no stoi mui seguro d esto pero si suena un poco si le encuentran el ritmo i los tiempos)
e|-----------------------------------|
B|--2222222—-33—-22--22/33—-22--5/33-|
G|-----------------------------------|
D|-----------------------------------|
A|-----------------------------------|
E|-----------------------------------|


no, t ha importado dejarme partido.........
e|-----------|
B|-2-3-2-3-3-|
G|-----------|
D|-----------|x4
A|-----------|
E|-----------|


iooooooo.... si stavamos nosotros si mui bn.......
e|---------------|
B|---------------|
G|--7777---6666--|
D|--7777---6666--|x2
A|--5555---4444--|
E|---------------|


ahora viene esto:
e|-----------|
B|-2-3-2-3-3-|
G|-----------|
D|-----------|x4
A|-----------|
E|-----------|


e|---------------|
B|---------------|
G|--7777---6666--|
D|--7777---6666--|x6
A|--5555---4444--|
E|---------------|


luego va esto:
e|---------------------|---------------|
B|---------------------|---------------|
G|--77--99--1111111111-|-77--99--77777-|
D|--77--99--1111111111-|-77--99--77777-|x2
A|--55--77--9-9-9-9-9--|-55--77--55555-|
E|---------------------|---------------|


B|--3-3-2-2h3-|x4


ahora dejan sonar en D


e|--------------------------------|
B|--------3------3-------2------2-|
G|--7777----7777----6666---6666---|
D|--7777----7777----6666---6666---|x3
A|--5555----5555----4444---4444---|
E|--------------------------------|


i al final c kedan tocando esto:
e|---------------|
B|---------------|
G|--7777---6666--|
D|--7777---6666--|x?
A|--5555---4444--|
E|---------------|

bueno ps eso es todo! me hizo sudar esta canción xD ojala q mi tab les sirva d algo! i ps ahí sugerencias, reclamos, dudas, felicitaciones, fans d 4 y medio, les dejo mi correo tankian_28@hotmail.com 
bie!
Calificar esta versión:
Aviso: Este fichero es trabajo propio de su transcriptor y representa su interpretación personal de la canción. El material contenido en esta página es para exclusivo uso privado, por lo que se prohibe su reproducción o retransmisión, así como su uso para fines comerciales.
Más versiones de Te Fuiste, 4 Y Medio
Te Fuiste
tablatura
Te Fuiste (ver 2)
tablatura
Descubre más canciones de 4 Y Medio