Te Fuiste, 4 Y Medio (tablatura)

Autor: noms17 | 15644 visualizaciones

INTRO

e------------------------------------
b----7-7-7--6-6--6-7-6-6--6-7-7--6-6-
g----7-7-7--7-7-----------7-7-7--7-7-        X2
d----5-5-5--5-5-----------5-5-5--5-5-
a------------------------------------
e------------------------------------

D,Re (escuchen el ritmo)
Ya, ya no estas aqui otra vez


(durante el grito)
e------------------------------------
b----7-7--7-7---6-6--6-6--6-6--------
g----7-7--7-7---7-7--7-7--7-7--------       X4
d----5-5--5-5---5-5--5-5--5-5--------
a------------------------------------
e------------------------------------

(despues del grito)
e------------------------------------         |
b--7-7--9-9---11-11--11-11--11-11----         |
g--7-7--9-9---11-11--11-11--11-11----         |
d--5-5--7-7---9--9---9--9---9--9-----         |
a------------------------------------         |
e------------------------------------         |
                                              |  -->  X2
e------------------------------------         |
b--7-7--9-9---7-7--7-7--7-7----------         |
g--7-7--9-9---7-7--7-7--7-7----------         |
d--5-5--7-7---5-5--5-5--5-5----------         |
a------------------------------------         |
e------------------------------------         |


(Con bajo)
No, un momento mas y tu ya no estaras
Pues dejaste atras lo que me prometiste ayer

(Despues del verso anterior)
e------------------
b----7-7--6-6-6-6--
g----7-7--7-7-7-7--    X4
d----5-5--5-5-5-5--
a------------------
e------------------



¿Por que?(gritado)

(Durante el coro)
e------------------
b----7-7--6-6-6-6--
g----7-7--7-7-7-7--    X4
d----5-5--5-5-5-5--
a------------------
e------------------

Si estabamos nosotros y muy bien      --->CORO
Para que te vas dejandome

(Despues del Coro)
(Usando Palm Mute)
e---------------------------------------
b----6-6--6-6---7-7-7-7--6-6-6--7-7-6-6-
g----7-7--7-7---7-7-7-7--7-7-7--7-7-7-7-    X4
d----5-5--5-5---5-5-5-5--5-5-5--5-5-5-5-
a---------------------------------------
e---------------------------------------


(Durante el siguiente Verso)
e------------------
b----7-7--6-6-6-6--
g----7-7--7-7-7-7--    X4
d----5-5--5-5-5-5--
a------------------
e------------------
No te ha importado dejarme partido en dos
pues ya no se ni que es lo que quiero



Nooo(grito)

(Durante el coro)
e------------------
b----7-7--6-6-6-6--
g----7-7--7-7-7-7--    X4
d----5-5--5-5-5-5--
a------------------
e------------------

Si estabamos nosotros y muy bien       --->CORO
para que te vas

(grito)


(Durante el grito)
e------------------
b----7-7--6-6-6-6--
g----7-7--7-7-7-7--    X4
d----5-5--5-5-5-5--
a------------------
e------------------

(Despues del grito)
e------------------------------------
b----7-7--7-7---6-6--6-6--6-6--------
g----7-7--7-7---7-7--7-7--7-7--------       X6
d----5-5--5-5---5-5--5-5--5-5--------
a------------------------------------
e------------------------------------


e------------------------------------         |
b--7-7--9-9---11-11--11-11--11-11----         |
g--7-7--9-9---11-11--11-11--11-11----         |
d--5-5--7-7---9--9---9--9---9--9-----         |
a------------------------------------         |
e------------------------------------         |
                                              |  -->  X2
e------------------------------------         |
b--7-7--9-9---7-7--7-7--7-7----------         |
g--7-7--9-9---7-7--7-7--7-7----------         |
d--5-5--7-7---5-5--5-5--5-5----------         |
a------------------------------------         |
e------------------------------------         |

(Durante el verso siguiente)
e-------------------
b----7--7-6-6-6-6-7-
g----7--7-7-7-7-7-7-    X2
d----5--5-5-5-5-5-5-
a-------------------
e-------------------

No tengo porque dejar
estar aqui sin ti 
(grito)

(despues del verso)
e------------------------------------
b-------7--------7--------6--------6-
g-------7--------7--------7--------7-       X4
d-5-5-5-5--5-5-5-5--5-5-5-5--5-5-5-5-
a------------------------------------
e------------------------------------


(Durante lo siguiente y hasta el final)
e------------------------------------
b----7-7--7-7---6-6--6-6--6-6--------
g----7-7--7-7---7-7--7-7--7-7--------       X4
d----5-5--5-5---5-5--5-5--5-5--------
a------------------------------------
e------------------------------------

Porque fuimos algo que no volvera




Eso es todo, espero que les sirva :)

Comentarios del colaborador: cualquier coas, ya saben: noms17@gmail.com

Calificar esta versión:
Aviso: Este fichero es trabajo propio de su transcriptor y representa su interpretación personal de la canción. El material contenido en esta página es para exclusivo uso privado, por lo que se prohibe su reproducción o retransmisión, así como su uso para fines comerciales.
Más versiones de Te Fuiste, 4 Y Medio
Te Fuiste
tablatura
Te Fuiste (ver 2)
tablatura
Descubre más canciones de 4 Y Medio