Amor Mío, 3 De Copas (tablatura) (ver 2)

Autor: Anónimo | 19642 visualizaciones



oRIGINAL EN Bb

Intro

             Bm7/A          A                    Bm7/A     X004230
e-----------------5-----------------------
B------2-3-5-5/7----5---3-3p2----------2--
G--2-4------------------------4-2--2-4----
D-----------------------------------------
           Bm7/A          E
e-----------------5-----5-5p4---------------
B------2-3-5-5/7----5---------5-------------
G--2-4--------------------------4--2-1------
D-------------------------------------------

      A         E/G#            F#m
Amor mío, no sé lo que pasó contigo,
    E                 D
no sé lo que pasó conmigo,
           Bm
por qué dejamos de ser,
           Bm/A           E
buenos amantes y buenos amigos.

Amor mío, por qué tenemos tanto frío,
por qué dejamos que el olvido,
nos congelara la piel,
y nos dejara en medio del vacío.

PRE
   F#m                  E
Qué le paso a nuestro amor,
         Bm                     E
qué le pasó a tu corazón, y al mío.

CORO
A   E/G#     Bm
A-AAA  Amor mío,
              E                A
te me estás yendo como agua de río.

A-AAA Amor mío,
estás aquí pero no estás conmigo.

A-AAA  Amor mío,
no te me vayas que te necesito.

A-AAA  Amor mío,               Intro
para sentir que sigo estando vivo.


Amor mío, te están gritando mis latidos,
con este corazón partido,
que se desangra por ti,
que me lastima como un enemigo.

PRE

CORO

PUENTE (notas de PRE)

Vivo por ti solamente por ti,
y yo sé que no todo está perdido.

CORO (sube tono)

FINAL
 E     E/D#            C#m     F#        B
e--7-9-9/11-9-7h9p7-----------7h6--------------
B--------------------7/9-7--------7------------
G-----------------------------------8-6-6/4----





Calificar esta versión:
Aviso: Este fichero es trabajo propio de su transcriptor y representa su interpretación personal de la canción. El material contenido en esta página es para exclusivo uso privado, por lo que se prohibe su reproducción o retransmisión, así como su uso para fines comerciales.
Más versiones de Amor Mío, 3 De Copas
Amor Mio
acordes
Amor Mio (ver 2)
acordes
Amor Mio (ver 3)
acordes
Amor Mío
tablatura
Amor Mío (ver 2)
tablatura
Descubre más canciones de 3 De Copas