Amor Mío, 3 De Copas (tablatura)

Autor: Anónimo | 42450 visualizaciones



Para los que gustan de poner acordes medio fumados
aquí les va mi versión de Son by four con unos
arreglillos medio chidos, esta canción se la dedico
a Cynthia un niña muy especial en mi vida.

Intro:
          Bmadd11/E   D9     A9
e |-------------------5------------------------|
B |-----------5-5/7-----5----------------------|
G |-----4-6-7----------------7-7h6-4------4-6--|
D |---7------------------------------7--7------|
A |--------------------------------------------|
E |--------------------------------------------|

             Bmadd11/E  D9     E
e |-------------------5------5-5h4-------------|
B |-----------5-5/7-----5----------5-----------|
G |-----4-6-7------------------------4---------|
D |---7--------------------------------7-6-----|
A |--------------------------------------------|
E |--------------------------------------------|


1ª estrofa:
       A    E6/G#             F#m
Amor mío, no sé lo que paso contigo
    E                D
No sé lo que paso conmigo
          Bm7
Porque dejamos de ser,
         Bm7/A             E
Buenos amantes y buenos amigos.


       A    E6/G#             F#m
Amor mío, porque tenemos tanto frío,
    E                D
Porque dejamos que el olvido,
          Bm7
Nos congelara la piel,
         Bm7/A             E
Y nos dejara en medio del vacío.


  F#m                 B
¿Qué le pasó a nuestro amor?
           D                    E
¿Qué le pasó a tu corazón y al mío?


:
A  E       Bm7
A..A.. mor mío,
            D           E        A
Te me estas yendo como agua de río,
A  E       Bm7
A..A.. mor mío,
        D           E        A
Estas aquí pero no estas conmigo,
A  E       Bm7
A..A.. mor mío,
          D           E        A
No te me vayas que te necesito
A  E       Bm7
A..A.. mor mío,
          D           E       (Intro)
Para sentir que sigo estando vivo


2a estrofa:
       A    E6/G#             F#m
Amor mío, están gritando mis latidos,
    E                D
Con este corazón partido,
          Bm7
Que se desangra por ti,
         Bm7/A             E
Que me lastima como un enemigo.


  F#m                 B
¿Qué le pasó a nuestro amor?
           D                    E
¿Qué le pasó a tu corazón y al mío?


:
A  E       Bm7
A..A.. mor mío,
            D           E        A
Te me estas yendo como agua de río,
A  E       Bm7
A..A.. mor mío,
        D           E        A
Estas aquí pero no estas conmigo,
A  E       Bm7
A..A.. mor mío,
          D           E        A
No te me vayas que te necesito
A  E       Bm7
A..A.. mor mío,
          D           E
Para sentir que sigo estando...


  F#m                 B
Vivo por ti, solamente por ti
         D                    E  - F
Y yo se que no todo esta perdido.


:
B  F#       C#m7
A..A.. mor mío,
            E           F#7       B
Te me estas yendo como agua de río,
B  F#       C#m7
A..A.. mor mío,
        E           F#7     B
Estas aquí pero no estas conmigo,
B  F#       C#m7
A..A.. mor mío,
          E           F#7 B
No te me vayas que te necesito
B  F#       C#m7
A..A.. mor mío,
          E           F#      E
Para sentir que sigo estando vivo

Final
           B             C#m7  E          F#m7      B
e|---------11--------------------------------------------|
B|---12-14----14-12-----------12h11----------------------|
G|------------------11h13-11--------11-------------------|
D|-------------------------------------11-11h13-11-11b9--|
A|-------------------------------------------------------|
E|-------------------------------------------------------|

  Bmadd11/E  D9 A9 A E6/G# F#m E D Bm7 Bm7/A B F# F#7 C#m7
e|---0-------0--0--0---X----2--0-2--2----2---2--2--2---4-----|
B|---3-------3--0--2---5----2--0-3--3----3---4--2--2---5-----|
G|---4-------2--2--2---4----2--1-2--2----2---4--2--3---4-----|
D|---2-------0--2--2---2----4--2-0--4----4---4--4--2---6-----|
A|---X-------X--0--0---X----4--2-X--2----0---2--4--4---4-----|
E|---X-------X--X--X---4----2--0-X--X----X---X--2--2---X-----|





Calificar esta versión:
Aviso: Este fichero es trabajo propio de su transcriptor y representa su interpretación personal de la canción. El material contenido en esta página es para exclusivo uso privado, por lo que se prohibe su reproducción o retransmisión, así como su uso para fines comerciales.
Más versiones de Amor Mío, 3 De Copas
Amor Mio
acordes
Amor Mio (ver 2)
acordes
Amor Mio (ver 3)
acordes
Amor Mío
tablatura
Amor Mío (ver 2)
tablatura
Descubre más canciones de 3 De Copas