A Modern Myth, 30 Seconds To Mars (tablatura) (ver 3)

Autor: youngcandy | 31743 visualizaciones



--------------------------------------------------- E
--------------------------------------------------- B
--------------------------------------------------- G
-7-----7-----7------------------------------------- D
-5-5-5-5-5-5-5--8-----8-----8--(5-----5-----5)----- A
----------------6-6-6-6-6-6-6--(3-3-3-3-3-3-3)--X2- E

------------------------------------------------------ E
------------------------------------------------------ B
------------------------------------------------------ G
-7-----7-----7---------------------------------------- D
-5-5-5-5-5-5-5--8-----8-----8--(12-------12-------12)- A
----------------6-6-6-6-6-6-6--(10-10-10-10-10-10-10)-X2- E

------------------------------------------------------------- E
------------------------------------------------------------- B
------------------------------------------------------------- G
-7-7-7-----------------------7-7-7--------------------------- D
-5-5-5--8-8-8--5-5-5-5-5-5---5-5-5--8-8-8--12-12-12-12-12-12- A
--------6-6-6--3-3-3-3-3-3----------6-6-6--10-10-10-10-10-10- E

------------------------------------------------------ E
------------------------------------------------------ B
------------------------------------------------------ G
-(7-----7-----7--)-----(8-----8-----8--)-------------- D
-(5-5-5-5-5-5-5-5)-X2--(6-6-6-6-6-6-6-6)-X2----------- A
------------------------------------------------------ E

------------------------------------------------------- E
------------------------------------------------------- B
------------------------------------------------------- G
-(7-----7-----7--)-----(8-----8-----8--)-------8------- D
-(5-5-5-5-5-5-5-5)-X2--(6-6-6-6-6-6-6-6)-X2----8------- A
-----------------------------------------------6------- E


------------------------------------------------------------- E
------------------------------------------------------------- B
------------------------------------------------------------- G
-7-7-7-----------------------7-7-7--------------------------- D
-5-5-5--8-8-8--5-5-5-5-5-5---5-5-5--8-8-8--12-12-12-12-12-12- A
--------6-6-6--3-3-3-3-3-3----------6-6-6--10-10-10-10-10-10- E

------------------------------------------------------------- E
------------------------------------------------------------- B
------------------------------------------------------------- G
-7-7-7-----------------------7-7-7--------------------------- D
-5-5-5--8-8-8--5-5-5-5-5-5---5-5-5--8-8-8--12-12-12-12-12-12- A
--------6-6-6--3-3-3-3-3-3----------6-6-6--10-10-10-10-10-10- E


------------------------------------------------------------- E
------------------------------------------------------------- B
------------------------------------------------------------- G
-7-7-7-----------------------7-7-7--------------------------- D
-5-5-5--8-8-8--5-5-5-5-5-5---5-5-5--8-8-8--12-12-12-12-12-12- A
--------6-6-6--3-3-3-3-3-3----------6-6-6--10-10-10-10-10-10- E

------------------------------------------------------------- E
------------------------------------------------------------- B
------------------------------------------------------------- G
-7-7-7-----------------------7-7-7--------------------------- D
-5-5-5--8-8-8--5-5-5-5-5-5---5-5-5--8-8-8--12-12-12-12-12-12- A
--------6-6-6--3-3-3-3-3-3----------6-6-6--10-10-10-10-10-10- E


------------------------------------------------------------- E
------------------------------------------------------------- B
------------------------------------------------------------- G
-7-7-7-----------------------7-7-7--------------------------- D
-5-5-5--8-8-8--5-5-5-5-5-5---5-5-5--8-8-8--12-12-12-12-12-12- A
--------6-6-6--3-3-3-3-3-3----------6-6-6--10-10-10-10-10-10- E


------------------------------------------------------------- E
------------------------------------------------------------- B
------------------------------------------------------------- G
-7-7-7-----------------------7-7-7--------------------------- D
-5-5-5--8-8-8--5-5-5-5-5-5---5-5-5--8-8-8--12-12-12-12-12-12- A
--------6-6-6--3-3-3-3-3-3----------6-6-6--10-10-10-10-10-10- E


------------------------------------------------------ E
------------------------------------------------------ B
------------------------------------------------------ G
-(7-----7-----7--)-----(8-----8-----8--)-------------- D
-(5-5-5-5-5-5-5-5)-X2--(6-6-6-6-6-6-6-6)-X2----------- A
------------------------------------------------------ E  X5





Calificar esta versión:
Aviso: Este fichero es trabajo propio de su transcriptor y representa su interpretación personal de la canción. El material contenido en esta página es para exclusivo uso privado, por lo que se prohibe su reproducción o retransmisión, así como su uso para fines comerciales.
Más versiones de A Modern Myth, 30 Seconds To Mars
A Modern Myth
acordes
A Modern Myth (ver 2)
acordes
A Modern Myth (ver 3)
acordes
A Modern Myth
tablatura
A Modern Myth (ver 2)
tablatura
A Modern Myth (ver 3)
tablatura
Descubre más canciones de 30 Seconds To Mars