A Modern Myth, 30 Seconds To Mars (tablatura) (ver 2)

Autor: aibj900915 | 16275 visualizaciones



A Modern Myth

30 Seconds To Mars

Intro:
e|-------------------------------------|
B|-------------------------------------|
G|----7--7-7---------------------------|
D|----7--7-7-8--8-8/5--5-5--5--5-5-----|
A|----5--5-5-8--8-8/5--5-5--5--5-5-----|
E|-----------6--6-6/3--3-3--3--3-3-----|

e|-------------------------------------------|
B|-------------------------------------------|
G|----7--7-7---------------------------------|
D|----7--7-7-8--8-8/8----8--8---8---8--8-----|
A|----5--5-5-8--8-8/8----8--8---8---8--8-----|
E|-----------6--6-6/10--10-10--10--10-10-----|

Este es el solo, si, solo aunque no lo crean, pero háganle caso a Jared Leto 
e|---------------------------------------------------------------------------|
B|---------------------------------------------------------------------------|
G|-7/5-5/3-3/2-3/2-0---02-2--02-2--7/5-5/3-3/2-3/2-0-35-35---------------|
D|-------------------3- ----3------------------------------------------------|
A|---------------------------------------------------------------------------|
E|---------------------------------------------------------------------------|

Coro, junto a el riff principal:
e|-------------------------------------------------------------------------|
B|-6-5---6-5---6-5---6-5---6-5---6-5---6-5---6-5---------------------------|
G|-----5-----5-----5-----5-----5-----5-----5-----5-------------------------|
D|-------------------------------------------------------------------------|
A|-------------------------------------------------------------------------|
E|-------------------------------------------------------------------------|

Ahí esta, eso es todo lo que necesitan para tocar la canción. 
Dudas correcciones y mentadas a mi correo: nothing_in_my_way_03@hotmai.com





Calificar esta versión:
Aviso: Este fichero es trabajo propio de su transcriptor y representa su interpretación personal de la canción. El material contenido en esta página es para exclusivo uso privado, por lo que se prohibe su reproducción o retransmisión, así como su uso para fines comerciales.
Más versiones de A Modern Myth, 30 Seconds To Mars
A Modern Myth
acordes
A Modern Myth (ver 2)
acordes
A Modern Myth (ver 3)
acordes
A Modern Myth
tablatura
A Modern Myth (ver 2)
tablatura
A Modern Myth (ver 3)
tablatura
Descubre más canciones de 30 Seconds To Mars