Tush, Zz Top (tablatura)

Autor: soeck | 26289 visualizaciones

INTRO
e---------------------------------------------------------------
B---------------------------------------------------------------
G-----5---5-3---5--5-3--------5---5-3---5---5-3-----------------
D-----5---5-3---5--5-3--------5---5-3---5---5-3----------------A---------------------------------------------------------------
E-3-3---3-----3---3-----1s3-3---3-----3---3---------------------

e---------------------------------------------------------------
E---------------------------------------------------------------
B---------5---5-3--5---5-3---------5---5-3-------5---5-3--------
G---------5---5-3--5---5-3---------5---5-3-------5---5-3--------
A---------------------------------------------------------------
E-3-1s3-3---3----3---3-----3-1s3-3---3-----1s3-3---3------3vv---

e---------------------------------------                        E---------------------------------------
B--5---5-3--------5---5-3---------------
G--5---5-3--------5---5-3---------------
A---------------------------------------
E----3-----3-3--3---3-------------------

e--------------------------------------------------------------
E--------------------------------------------------------------
B---------------------------------------5---5-3--5--5-3---------
G--5-5-7-7-9-9-7-7-5-5------------------5---5-3--5--5-3---------
A--3-3-3-3-3-3-3-3-3-3-----------------------------------------
E----------------------0-0-1-1-2-2-3--3---3----3---3-----------

e--------------------------------------------------------------
E--------------------------------------------------------------
B--------------------------------------------------------------
G-7-7-9-9-10-10-9-9--5-5-7-7-8-8-7-----------------------5-6-7-
A-5-5-5-5-5--5--5-5--3-3-3-3-3-3-3------5-7-7-8-8-7-7-5--3-4-5-
E-----------------------------------2s3-3-3-3-3-3-3-3-3--------

Comentarios del colaborador: Espero ke les guste la cancion ,.- ya ke es muy facil solo es kuestion de escucharla y llevar bien el tiempo ,.- dedikada a la banda the keeeee ,.- toker ,.- angel ,.- matu ,.- krupe cabrones son mi inspiacion ,.-

Calificar esta versión:
Aviso: Este fichero es trabajo propio de su transcriptor y representa su interpretación personal de la canción. El material contenido en esta página es para exclusivo uso privado, por lo que se prohibe su reproducción o retransmisión, así como su uso para fines comerciales.
Más versiones de Tush, Zz Top
Tush
acordes
Tush
tablatura
Descubre más canciones de Zz Top