Groenlandia, Zombis (tablatura)

Autor: Anónimo | 27146 visualizaciones

Este es el tema con el punteo 100% exacto(espero).
Por eso los acordes son más difíciles que
en otras adaptaciones.Ponedle práctica y os saldrá.

RIFF(PUNTEO PRINCIPAL):
  B
e-----------------------------
B-----------------------------
G-----------------------------
D-------4-----------4---4-----
A----4-6--6-4----4-6---6------
E-7----------7--7-------------
  G#m
e-----------------------------
B-----------------------------
G-------8-------------8-------
D-6--8-9--9-8-6--6-8-9--9-8---
A-----------------------------
E-----------------------------
  E         G#m        F#
e--------------------------------
B--------------------------------
G--------------------------------
D[----4-6]x4---------------------
A[-7-----]--6--6--6-6--4--4--4-4-
E-------------------------------7

B
Todas las secuencias
C#m                    A
han llegado a su conclusión
                  G#m - F#
el tiempo no puede esperar.
B
Atravesaré el mundo
C#m            A
y volando llegaré
                     G#m F#
hasta el espacio exterioor

ESTRIBILLO:
B                  G#m
Y yo te buscaré en Groenlandia
               E
en Perú en el Tibet
           G#m         F#
en Japón en la isla de Pascua.
B                 G#m
Y yo te buscaré en las selvas
                     E
de Borneo, en los crá-te-res
           G#m              F#
de Marte,en los anillos de Saturno.

VUELTA AL RIFF:

B
Cruzando amplios mares
C#m                  A
escalando altas montañas
                G#m    F#
descendiendo los glaciares.
B
A través del desierto
C#m                  A
las junglas y los bosques
                    G#m  F#
quizá te encuentre alguna vez...

ESTRIBILLO Y RIFF (atentos que hay algunos cambios):

  B
e-----------------------------
B-----------------------------
G-----------------------------
D-------4-----------4---4-5----
A----4-6--6-4----4-6---6------
E-7----------7--7-------------
  G#m
e-----------------------------
B-----------------------------
G-------8-------------8-------
D-6--8-9--9-8-6--6-8-9--9-8---
A-----------------------------
E-----------------------------
   E        G#m        F#
e-----------------------------
B-----------------------------
G-----------------------------
D[----4-6]x4-------------4----
A[-7-----]--6/5-6--6/5-6------
E-----------------------------


SOLO:
  B
e----------------------
B----------------------
G----------------------
D-4-----------------4--
A------6--4------4-6---
E----------7----7------

  G#m
e----------------------
B----------------------
G----------------------
D-6-----------------4--
A------6--4------4-6---
E----------7----7------

  E
e-----------------------
B-----------------------
G-----------------------
D-6-------------------4-
A------7--6-4----4-6-7--
E-----------------------

  G#m         F#
e-----------------------------
B-----------------------------
G-----------------------------
D-6--6--6-6---4--4--4--4------
A-6--6--6-6---4-----4-----6-4-
E-----------------------------

Ahora con Reverb(en eco)

  B          G#m        E
e-----------------------------
B-----------------------------
G---------6--8----8--6--4-----
D-9----8-9--------------------
A-----------------------------
E-----------------------------

         G#m        F#
e-----------------------------
B-----------------------------
G-----------------------------
D-6-6--4----------------------
A--------6--6--6-6--4--4--4-4-
E-----------------------------

B
A-A-A-Atravesaré el mundo
C#m            A
y volando llegaré
                     G#m   F#
hasta el espacio exteriooooor

ESTRIBILLO Y RIFF (también hay cambios)

  B
e-----------------------------
B-----------------------------
G-----------------------------
D-------4-----------4---4-5----
A----4-6--6-4----4-6---6------
E-7----------7--7-------------
  G#m
e-----------------------------
B-----------------------------
G-------8-------------8-------
D-6--8-9--9-8-6--6-8-9--9-8---
A-----------------------------
E-----------------------------
   E        G#m        F#
e--------------------------------
B--------------------------------
G--------------------------------
D[----4-6]x4---------------------
A[-7-----]--6--6--6-6--4--4--4-4-
E---------------------------7-7---7-FIN
Calificar esta versión:
Aviso: Este fichero es trabajo propio de su transcriptor y representa su interpretación personal de la canción. El material contenido en esta página es para exclusivo uso privado, por lo que se prohibe su reproducción o retransmisión, así como su uso para fines comerciales.
Más versiones de Groenlandia, Zombis
Groenlandia
acordes
Groenlandia
tablatura
Descubre más canciones de Zombis