Frío, Zoe (bajo)

Autor: Anónimo | 35443 visualizaciones



Frio
Zoe

Esta muy sencillo el tab solo hay que agarrarle  el ritmo aquí esta :

intro

g------------------------------------------
d------------------------------------------   (x2)
a----5---8-10----8-10---5---8-10----8-10---
e------------------------------------------
verso 1
ALIENTO de…….

g----------------------------------
d----------------------------------
a----5---8-10---8-10---5---8-10----
e----------------------------------
sirena con……

g--------------------------------------
d--------------------------------------   (x2)
a----5---8-10---8-10---5---8-10---8-10-
e--------------------------------------

de pues no se toca la parte de
SUPERHIPNOTIZADORES PÁJAROS..
entra el bajo hasta un poco antes del coro  haci


TRANSMISIONES INVERTIDAS
g---------------------
d---------------------
a----6-6-6-6-6--------
e---------------------

coro

frio
g-------------------------------------------------------------------
d-------------------------------------------------------------------
a---------0-0-0-0---6-6-6-5-5-5----------0-0-0-0---1-1-1-1-1--------
e-1-1-1-1------------------------1-1-1-1---------------------5-5-5—-

intro
verso

SUPERHIPNOTIZADORES PÁJAROS..
g-----------------------------------------------------------------
d-----------------------------------------------------------------
a-1----1-1-----3---3-3-----5----5-5-7-5------1----1-1-----6-6-6-6-
e-----------------------------------------------------------------

Coro
frio
g-------------------------------------------------------------------
d-------------------------------------------------------------------
a---------0-0-0-0---6-6-6-5-5-5----------0-0-0-0---6-6-6-5-5-5------
e-1-1-1-1------------------------1-1-1-1----------------------------


g-------------------------------------------------------------------
d-------------------------------------------------------------------
a-1-1-1-1---3-3-3-3---------1-1-1-3-3-3----------1-1-1-6-6-6--------
e-------------------------------------------------------------------

intro
fin
esta cancion esta muy padre habla sobre la televisión
y todo lo q hace, aci q dice leon con esta rola q no vean tanto la tele
cuidense .
un saludo al pollo y al copetes mis valedores.





Calificar esta versión:
Aviso: Este fichero es trabajo propio de su transcriptor y representa su interpretación personal de la canción. El material contenido en esta página es para exclusivo uso privado, por lo que se prohibe su reproducción o retransmisión, así como su uso para fines comerciales.
Más versiones de Frío, Zoe
Frío
acordes
Frío (ver 2)
acordes
Frío
bajo
Descubre más canciones de Zoe