Fotosintesis, Zoe (tablatura)

Autor: fherxo | 41290 visualizaciones



C#m      D   C#m      D   C#m       D     C#m      D
Como quieres ser tu dueño hacerte esclavo de su sueño

B|---1/2-1?1/2-1-1---| x4

A
  Si es que no eres así...

C#m       D  C#m       D   C#m       D     C#m      D
Ya no quiero ser tu perro  hacerme esclavo de tu sueño

B|---1/2-1?1/2-1-1---| x4

A
  Si es que no eres así...

Coro:
Bm        A         G
Fotosíntesis de Dios
Bm    D           G
Permanencia voluntad
Bm     A           G
Florescencia artificial
Bm                  D                G
No me entierren que no estoy muerto aun....

C#m D C#m D C#m D C#m D A

RIFF:
e|------------?------------|
B|-------------------------|
G|--2-2-0-------2-----2----|
D|--------4-2-4---2-4------|
A|----------------------0--|
E|-------------------------|

B|---1/2-1?0-2-1---| x4


C#m       D  C#m       D   C#m       D   C#m      D
Ya no voy a  ser tu perro  ni el esclavo de tu sueño

B|---1/2-1?1/2-1-1---| x4

A
  Si es que no eres así...

Coro:
Bm        A         G
Fotosíntesis de Dios
Bm    D           G
Permanencia voluntad
Bm     A           G
Florescencia artificial
Bm                  D                G
No me entierren que no estoy muerto aun....



Solo:
   Bm       A          G                     Bm       D
e|------------?--------------------------------------------------|
B|---------------------------------------------------------------|
G|---------------------------------------------------------------|
D|----0-2-4-0--0-2-4-0-------------0-----0------0-2-4-0--0-2-4-0-|
A|-2-------------------2-2?2-0-0/2---0/2---2-2-------------------|
E|---------------------------------------------------------------|

  G                     Bm          A         G
e|------------?------------------------------------------------------|
B|-------------------------------------------------------------------|
G|----------------------0/2-2-2-2-4-0-0-0-0-2------------------------|
D|------------0-----0-------------------------4-4-4-5-------2-----2--|
A|2-2?2-0-0/2---0/2---2-------------------------------5-5/7---5/7---5|
E|-------------------------------------------------------------------|

   Bm       D          G
e|------------?---------------------------------|
B|----------------------------------------------|
G|----------------------------------------------|
D|----0-2-4-0--0-2-4-0-------------0-----0------|
A|-2-------------------2-2?2-0-0/2---0/2---2-2--|
E|----------------------------------------------|

Coro:
Bm        A         G
Fotosíntesis de Dios
Bm    D           G
Permanencia voluntad
Bm     A           G
Florescencia artificial
Bm                  D                G
No me entierren que no estoy muerto aun....

Bm Bm A Bm G





Calificar esta versión:
Aviso: Este fichero es trabajo propio de su transcriptor y representa su interpretación personal de la canción. El material contenido en esta página es para exclusivo uso privado, por lo que se prohibe su reproducción o retransmisión, así como su uso para fines comerciales.
Más versiones de Fotosintesis, Zoe
Fotosintesis
acordes
Fotosintesis
tablatura
Fotosintesis
bateria
Descubre más canciones de Zoe