Fantasma, Zoe (bajo)

Autor: Molotov | 32124 visualizaciones



Canción: Fantasma
Autor: León Larregui
Álbum: Reptilectric
Armonizada en: Bm
Instrumento: Bajo Rickenbacker-4
Tempo: 4/4

G-4-4-4-4-4-4-4-4-7-7-7-7-7-7-7----------------5h7-7-7-7-7-7h9-
D-------------------------------5-5-5-5-4-4-4-4----------------
A--------------------------------------------------------------
E--------------------------------------------------------------


 Dame Una señal
G-4-4-4-4-4-4-4-4-7-7-7-7-7-7-7----------------5h7-7-7-7-7-7h9-
D-------------------------------5-5-5-5-5-5-5-5----------------
A--------------------------------------------------------------
E------------------------------------------------------------X2


Coro:
   Fantasma de mi?

G----------------------------------------------------------
D----------------------------------------------------------
A-3-3-3-3-3-3-3--------------------------------------------
E--------------5-5-5-5-5-5-5-1-1-1-1-1-1-1-5-5-5-5-5-5-5-X2

Puente:
g-4-4-4-4-4-4-4-4---------------9-9-7-7-5-5-4-2--------------
d-----------------5-5-5-5-5-5-5-----------------2-2-2-2-2-2--
a------------------------------------------------------------
e----------------------------------------------------------X2

    No hace?
G-4-4-4-4-4-4-4-4-7-7-7-7-7-7-7----------------5h7-7-7-7-7-7h9-
D-------------------------------5-5-5-5-5-5-5-5----------------
A--------------------------------------------------------------
E------------------------------------------------------------X2


Coro: No Bass/Sin Bajo/nao bajo/nofo bafajofo.

Puente:

g-4-4-4-4-4-4-4-4---------------9-9-7-7-5-5-4-2--------------
d-----------------5-5-5-5-5-5-5-----------------2-2-2-2-2-2--
a------------------------------------------------------------
e------------------------------------------------------------



            X16
G-I------------I
D-I?----------?I
A-I?----------?I
E-I?-0---10-7?-I                                           =
                                                         ?/.
                                                         =
G-------------------I-----------------I------------------I------I
D-?---------------0-I-----------------I------------------I-----?I
A-?-2-2---5-2-2-----I-------5-------5-I-7-7-5-5-3-3?--5?-I-2-2-?I
E-------0-------0---I-3-3-0---3-3-0---I-------------0----I------I


vaks se cuidan todos e no fumen no beban pero si toquen bueno ahgan lo q quieran pero sobre todo TOMEN y TOQUEN xD





Comentarios del colaborador: Mi oido la verda mi oido

Calificar esta versión:
Aviso: Este fichero es trabajo propio de su transcriptor y representa su interpretación personal de la canción. El material contenido en esta página es para exclusivo uso privado, por lo que se prohibe su reproducción o retransmisión, así como su uso para fines comerciales.
Más versiones de Fantasma, Zoe
Fantasma
acordes
Fantasma
tablatura
Fantasma
bajo
Descubre más canciones de Zoe