Energía, Zoe (tablatura)

Autor: Anónimo | 41931 visualizaciones



la pasada que subi estaba mal aki esta la correcta disculpen
pra aimee the kieroo donde sea ke estes

-RIFF 1

    C              D
E /-7-10-7-10-7-10-------------------------
B /----------------13-12-10-8--------------
G /----------------------------------------  X2
D /----------------------------------------
A /----------------------------------------
E /----------------------------------------

    G             C
E /-7-10-7-10-7-10-------------------------
B /----------------13-12-10-8--------------
G /----------------------------------------  x2
D /----------------------------------------
A /----------------------------------------
E /----------------------------------------


-RIFF 2
E /-7-10-7-10-7-10--------------------------------
B /----------------13-12-10-8-7-8-10-8-7-8-10-8---
G /-----------------------------------------------  x1
D /-----------------------------------------------
A /-----------------------------------------------
E /-----------------------------------------------

 C              D              G             C
Haz energía de paz con propulsión hacia el perdón,
 C              D               G                C
sal de tu ruina moral, trata de ver que no estás solo,
 C                 D             G           C
haz de tu vida un lugar para el amor sin contención,
 C                               D               Em
que el miedo a la muerte es lo mismo, vivir con miedo.


 C              D           G             C
Haz energía de paz con propulsión de sanación,
 C              D                G             C
sal de la resignación confía en que nada es imposible,
 C                 D             G           C
haz de tu vida un lugar para el amor sin contención,
 C                               D               Em
que el miedo a la muerte es lo mismo, vivir con miedo.


F C G Em C D G C C D G C

C              D              G              C
Haz energía de paz con propulsión hacia el perdón,
C                 D              G               C
sal de tu ruina moral, trata de ver que no estás solo,
C                  D             G             C
haz de tu vida un lugar para el amor sin contención,
C                               D                Em
que el miedo a la muerte es lo mismo, vivir con miedo.

F C G F C G

   F         C        G G
¡Energía, energía de paz!
   F         C        G G
¡Energía, energía de amor!

    F         C        G G
¡Energía, energía de paz!
    F         C        G G
¡Energía, energía de amor!

    F         C        G G
¡Energía, energía de paz!
    F         C        G G
¡Energía, energía de amor!
(Es el momento amor es el momento)
    F         C        G G
¡Energía, energía de paz!
(Es el momento amor es el momento)
    F         C        G G
¡Energía, energía de amor!

D

  D            E             A            A7
Paz, queremos paz, queremos paz, queremos paz.
          D             E             A
Queremos paz, queremos paz, queremos paz.
         A7            D      E                 A   A7/A
queremos paz, queremos pá, parapapá, quieremos paz.

NOTA: EL INTRO SE INTERCALA UNA Y UNA HASTA COMPLETAR
      LAS CUATRO SOLO PARA LOS ACORDES
PS SI TIENEN DUDAS O ALGUNA SUGERENCIA O REGAÑO
PS ADDINGME([email protected]) en caso de que
me no me meta al mssngr buskenme con este mismo
mail en facebook





Calificar esta versión:
Aviso: Este fichero es trabajo propio de su transcriptor y representa su interpretación personal de la canción. El material contenido en esta página es para exclusivo uso privado, por lo que se prohibe su reproducción o retransmisión, así como su uso para fines comerciales.
Más versiones de Energía, Zoe
Energía
acordes
Energía
tablatura
Descubre más canciones de Zoe