Asteroide, Zoe (bajo)

Autor: Molotov | 45289 visualizaciones



ola...
ps califikn espero les sirva...

Canción: Asteroide
Artista: Zoè
Álbum: memo rex commander del Corazón atómico de la via láctea
Modelo del bajo: Rickenbecker-4
Intro?
G-----------------------
D-----------------------
A-----------------------
E---3-3-3-3?2-2?1-1-1---X3

Déjate ver?

G-------------------------------
D-------------------------------
A-------------------------------
E?--2-2-2?-2?-2-2-2---2---2-2-2-

Y viajas sobre un asteroide?

G--------------------
D--------------------
A?1?1?1?1?1?1?1?1----
E--------------------

Clavando tus?

G--------------------------------
D--------------------------------
A?5-5-5-5-5----------------------
E-------------4-4-4-4-4?3-3-3-3--

Y viajas sobre un asteroide?

G--------------------
D--------------------
A?1?1?1?1?1?1?1?1----
E--------------------

Espérame?
G--------------------------------
D--------------------------------
A?5-5-5-5-5----------------------
E-------------4-4-4-4-4?3-3-3-3--




G-----------------------
D-----------------------
A-----------------------
E---3-3-3-3?2-2?1-1-1---X4 se repite todo?

Final

La nave?
G-------------------
D?3-3-3-3?6-6-6-6---
A-------------------
E-------------------

G-----------------------
D-----------------------
A-----------------------
E---3-3-3-3?2-2?1-1-1---X6





Comentarios del colaborador: ps sakdo con tonicas de la lira

Calificar esta versión:
Aviso: Este fichero es trabajo propio de su transcriptor y representa su interpretación personal de la canción. El material contenido en esta página es para exclusivo uso privado, por lo que se prohibe su reproducción o retransmisión, así como su uso para fines comerciales.
Más versiones de Asteroide, Zoe
Asteroide
acordes
Asteroide
tablatura
Asteroide
bajo
Descubre más canciones de Zoe