Song Of Time, Zelda (tablatura) (ver 2)

Autor: hek | 39075 visualizaciones



hay varias maneras de tocrla pero yo creo k para la guitarra suena mejor grave:

1)-----------------------------------
2)-----------------------------------
3)---------------0-------------------           X2
4)-2-----2-----2---4-0---0-2---------
5)---0-3---0-3---------3-----0---2-0
6)-----------------------------3-----

1)---------------------------------------------------------
2)---------------------------------------------------------
3)---------------------------------0---0---0---------------
4)-------------------------------2---4---2----0-2----------
5)-0---2-0-2-3-0---0---2-0-3-5-0-------------------0---2-0-
6)---3---------------3-------------------------------3-----


1)-----------------
2)-----------------
3)-----------------
4)-----------------
5)-2-3-2-3-0---2-0-
6)-----------3-----





Comentarios del colaborador: ya dije no sean ojetes y agan algun comentario

Calificar esta versión:
Aviso: Este fichero es trabajo propio de su transcriptor y representa su interpretación personal de la canción. El material contenido en esta página es para exclusivo uso privado, por lo que se prohibe su reproducción o retransmisión, así como su uso para fines comerciales.
Más versiones de Song Of Time, Zelda
Song Of Time
tablatura
Song Of Time (ver 2)
tablatura
Song Of Time (ver 3)
tablatura
Descubre más canciones de Zelda