Las Tres Cosas De La Vida, Zambayonny (tablatura)

Autor: Anónimo | 30013 visualizaciones

Cuerdas en este orden:
  1;2;3;4;5;6
C:010230
E7:010020         (Creo que estan bien asi
Am/C:010203        y sino son muy parecidas pero asi
F:112331           Suena bien)
G:100023

   Poder angustia y tortas fritas.     Putas re viente y soledad
E |--------------------------------------------------------
B |-----------1------------------------------1-------------
G |--------0----0-----------0------0-------0---0-----------
D |------2--------2------2-------0-------2-------2---------
A |---3----------------3-------2-------0-------------------
E |------------------------------------3-------------------

                    Mierda dinero y tocesita (aguante la
                                             tocesita carajo xD)
E |--------------------------------------------------------
B |--------1--------------1-----------1--------------------
G |------0---0----------2---2-------2---2------------------
D |----2-------2------3-------3---3-------3----------------
A |--0-----------------------------------------------------
E |--3--------------1-----------1--------------------------

    Fama poronga y cha cha cha!
E |--------------1-----------------------------------------
B |-------0--------0------0--------------------------------
G |-----0---0--------0------0------------------------------
D |---0-------0---------------0----------------------------
A |--------------------------------------------------------
E |-3------------------------------------------------------

(repite el punteo hasta el estribo)

Suerte trabajo y trasplantado
Genio cagón y tartamudo
Esposa casita y aburrido
Descartable bonito y pelotudo.

              F
Tenés que elegir, mi amor
           C
Todo no se puede tener
     G
Si te cogen no te pagan
Si te pagan ya sos puta
       F
Si sos puta te difaman
Y enseguida te disfrutan
     C
Y te ponen como ejemplo
Cuando hablan de chupadas
F
Cuando algunos dicen gata
          G            C   G
O cuando hablan de ponerlo-o-o.



   C                         E7
Elegante pijudo y descosido
  Am/C
Sodero familiero y cagador
   F
Exitoso culo roto y buen amigo
    G
Maloliente independiente y vividor
     C                         E7
Inmortal impotente y pesimista
      Am/C
Traga sable pinchado y ganador
F
Rengo inteligente y peronista
    G
Maricotas discreto y rock & roll.

              F
Tenes que elegir, mi amor
             C
Todo no se puede tener
       G
Si no te clavas un vino
O no te fumas un chino
         F
No estas ni desinhibido
Ni gracioso ni encendido
      C
Sin embargo al otro dia
Te cagaste la barriga
     F
La cabeza y la comida
          G          C   G
Te hacen vomitar la vida-a-a.



Madrugador vende patria y poderoso
Verga floja musculito y celular
Manda parte pedante y oligarca
Pelo largo ropa linda y siempre mal
Pelado chota y papa frita
Ansioso merquero y pija flor
Uruguayo verdulero y mentalista
Divertido pervertido y bufaron.


            F
Tenes que elegir, mi amor
            C
Todo no se puede tener
      G
Si tenes una muñeca
Que te besa y te cocina
     F
Olvidate de otras tetas
De otros culos de otras minas
        C
De tus planes de soltero
Que en verdad nunca ocurrieron
        F
Aunque vivas prisionero
      G           C   G
De creerte la mentira-a-a.


Alcoholico simpatico y gerente
Cabezon conocido y mal cogido
Pegador analfabeto y buena suerte
Estudioso coge nunca y mal nacido
Patotero rompe huevo y linda novia
Rellenito intelectual y marca paso
Religioso poderoso y claustrofobia
Pobre tipo muy feliz y sin un brazo.

             F
Tenes que elegir, mi amor
             C
Todo no se puede tener
       G
Si te gusta la fiestita
Te hace falta algo de guita
    F
Se consigue laburando
Ya te veo madrugando
     C
Bostezando doce y media
Y las trolas no llegaron
    F
Te vas a dormir temprano
Te pajeas te bañas
     G         C    G
Y mañana te contamo-o-os.


Boludon sabelotodo y fan de Barsky
Reventado interesante y secretito
Desprendido millonario y super nazi
Bien pajero dominado y bañadito
Voluntarioso sin talento y convencido
Coge reina chupa pija y linda letra
Desdichado con salud y buenos vinos
Gordo puto premio nobel y con tetas.

            F
Tenes que elegir, mi amor
            C
Todo no se puede tener
       G
Si te perfilas de artista
Y soñas con la vitrola
      F
Estudia algo por las dudas
Que la vocación se joda
          C
Que esta lleno de boludas
Recibidas de señoras
        F
Con el titulo en la concha
      G           C
Refregándote las bolas.
Calificar esta versión:
Aviso: Este fichero es trabajo propio de su transcriptor y representa su interpretación personal de la canción. El material contenido en esta página es para exclusivo uso privado, por lo que se prohibe su reproducción o retransmisión, así como su uso para fines comerciales.
Más versiones de Las Tres Cosas De La Vida, Zambayonny
Las Tres Cosas De La Vida
acordes
Las Tres Cosas De La Vida (ver 2)
acordes
Las Tres Cosas De La Vida
tablatura
Descubre más canciones de Zambayonny