Siento Que Te Quiero, Zacarias Ferreira (bajo)

Autor: thenew0213 | 31678 visualizaciones

Esta cancion es bien linda
y complicadita
Intro
E|--------|----4--|-----|-----|-------|----4--|----5--|----------|
A|--0---0-|-4-4-4-|-5-5-|-7-7-|-0---0-|-4-4-4-|-5-5-5-|-7------7-|
D|----22--|-------|--7--|--9--|---22--|-------|-------|--69--97--|
G|--------|-------|-7---|-9---|-------|-------|-------|----79----|

Para ti
E|--5------|----4--|----5--|----------|-------|----4--|----5--|----------|
A|----7----|-4-4-4-|-5-5-5-|-5h7-5h7--|-0---0-|-4-4-4-|-5-5-5-|-7-5-4-2--|
D|---7-5h7-|-------|-------|-7h9-7h9--|---22--|-------|-------|----------|
G|---------|-------|-------|----------|-------|-------|-------|----------|

Hoy recuerdo
E|--------|----4--|----5--|----7--|-------|----4--|----5--|----------|
A|--0-0-0-|-4-4-4-|-5-5-5-|-7-7-7-|-0-0-0-|-4-4-4-|-5-5-5-|-5h7-5h7--|
D|-----2--|-------|-------|-------|----2--|-------|-------|-7h9-7h9--|
G|--------|-------|-------|-------|-------|-------|-------|----------|

Nunca he podido
E|--------|----4--|----5--|----70-|
A|--0-0-0-|-4-4-4-|-5-5-5-|-7-7---|
D|-----2--|-------|-------|-------|
G|--------|-------|-------|-------|

E|----0--|----4--|----5--|----------------|
A|-0-0-0-|-4-4-4-|-5-5-5-|-7-------97542--|
D|-------|-------|-------|--69----9-------|
G|-------|-------|-------|----7/9---------|

Porque diste a mi vida
E|-------|--------|--------|--------|
A|--0--0-|-404--4-|-545--5-|-757--7-|
D|----2--|-----6--|-----7--|-----9--|
G|-------|--------|--------|--------|

E|--0-----|--------|--------|---------|
A|-0-0--0-|-404--4-|-545--5-|-757--7--|
D|-----2--|-----6--|-----7--|-----9---|
G|--------|--------|--------|---------|

Hoy le pido a
E|---0-----|--------|--------|--------|
A|--0-0--0-|-404--4-|-545--5-|-757--7-|
D|------2--|-----6--|-----7--|-----9--|
G|---------|--------|--------|--------|

E|---0-----|--------|--------|------------|
A|--0-0--0-|-404--4-|-545--5-|-5-5h7-5h7--|
D|------2--|-----6--|-----7--|---7h9-7h9--|
G|---------|--------|--------|------------|

Y amarte
E|-----0--|----4--|----5--|----------|-------|----4--|----5--|------|
A|--0-0-0-|-4-4-4-|-5-5-5-|-7-5-4-2--|-0-0-0-|-4-4-4-|-5-5-5-|-7-7--|
D|--------|-------|-------|----------|----2--|-------|-------|--7---|
G|--------|-------|-------|----------|-------|-------|-------|-9----|

Mi amor
E|--------|-----|-----|----------|
A|--0---0-|-4-4-|-5-5-|-5h7-5h7--|
D|----22--|--6--|--7--|-7h9-7h9--|
G|--------|-6---|-7---|----------|

Siento que te quiero
E|--------|----4--|----5--|----7530-|-------|----4--|----5--|----------|
A|--0---0-|-4-4-4-|-5-5-5-|-7-7-----|-0-0-0-|-4-4-4-|-5-5-5-|-7-5-4-2--|
D|----22--|-------|-------|---------|----2--|-------|-------|----------|
G|--------|-------|-------|---------|-------|-------|-------|----------|

amooor
E|--------|-----|-----|----------|
A|--0---0-|-4-4-|-5-5-|-5h7-5h7--|
D|----22--|--6--|--7--|-7h9-7h9--|
G|--------|-6---|-7---|----------|

zacarias ferreira
E|--------|----4--|----5--|----------|-------|-------|-------|-------|
A|--0---0-|-4-4-4-|-5-5-5-|-7-5-4-2--|-0-0-0-|-0---0-|-4---4-|-5---5-|
D|----22--|-------|-------|----------|----2--|---22--|---66--|---77--|
G|--------|-------|-------|----------|-------|-------|-------|-------|

E|--------|-------|-------|-----------|----0--|----4--|----5--|----------|
A|--0---0-|-4---4-|-5---5-|-7-----7---|-0-0-0-|-4-4-4-|-5-5-5-|-7-5-4-2--|
D|----22--|---66--|---77--|--69----45-|-------|-------|-------|----------|
G|--------|-------|-------|----79-----|-------|-------|-------|----------|

E|--------|-------|-------|-------|-------|-------|-------|--------|
A|--0---0-|-4---4-|-5---5-|-7---7-|-0---0-|-4---4-|-5---5-|-7---7--|
D|----22--|---66--|---77--|---99--|---22--|---66--|---77--|---99---|
G|--------|-------|-------|-------|-------|-------|-------|--------|

E|----------|----4--|----5--|----------|-------|----4--|----5--|----------|
A|--0---0-2-|-4-4-4-|-5-5-5-|-7-5-4-2--|-0---0-|-4-4-4-|-5-5-5-|-5h7-5h7--|
D|----22----|-------|-------|----------|---22--|-------|-------|-7h9-7h9--|
G|----------|-------|-------|----------|-------|-------|-------|----------|

Que bello fue
E|--------|----4--|----5--|----70-|-------|----4--|----5--|----70--|
A|--0---0-|-4-4-4-|-5-5-5-|-7-7---|-0-0-0-|-4-4-4-|-5-5-5-|-7-7----|
D|----22--|-------|-------|-------|----2--|-------|-------|--------|
G|--------|-------|-------|-------|-------|-------|-------|--------|

Pero si Dios
E|-----0--|----4--|----5--|----70-|
A|--0-0-0-|-4-4-4-|-5-5-5-|-7-7---|
D|--------|-------|-------|-------|
G|--------|-------|-------|-------|

E|--------|----4--|----5--|-----|--------7--|
A|--0-0-0-|-4-4-4-|-5-5-5-|-7-7-|-7h9--97---|
D|-----2--|-------|-------|-9-9-|-9h11------|
G|--------|-------|-------|-----|-----------|

Porque diste a mi vida
E|-------|--------|--------|--------|--4-----|--------|--------|-------7--|
A|--2--2-|-626--6-|-767--7-|-979--9-|-2-2--2-|-626--6-|-767--7-|-979-97---|
D|----4--|-----8--|-----9--|----11--|-----4--|-----8--|-----9--|----------|
G|-------|--------|--------|--------|--------|--------|--------|----------|

Hoy le pido
E|--------|----6--|----7--|----92-|-------|----6--|----7--|----92--|
A|--2---2-|-6-6-6-|-7-7-7-|-9-9---|-2-2-2-|-6-6-6-|-7-7-7-|-9-9----|
D|----44--|-------|-------|-------|----4--|-------|-------|--------|
G|--------|-------|-------|-------|-------|-------|-------|--------|

Y amarte
E|-------|--------|--------|--------|--4-----|--------|--------|---------|
A|--2--2-|-626--6-|-767--7-|-979--9-|-2-2--2-|-626--6-|-767--7-|-979--9--|
D|----4--|-----8--|-----9--|----11--|-----4--|-----8--|-----9--|----11---|
G|-------|--------|--------|--------|--------|--------|--------|---------|

Amoor
E|------|-----|-----|------------|
A|--2-2-|-6-6-|-7-7-|-9-97-76-4--|
D|------|-----|-----|------------|
G|------|-----|-----|------------|

Siento
E|--------|--------|--------|-----92-|-24-------|--------|--------|
A|--42--2-|-626--6-|-767--7-|-979----|---2-2--2-|-626--6-|-767--7-|
D|-----4--|-----8--|-----9--|--------|-------4--|-----8--|-----9--|
G|--------|--------|--------|--------|----------|--------|--------|

E|--------------|--------------|
A|--9-----------|-9------------|
D|----9-11------|---9-11-------|
G|---------9-11-|--------9-11--|

Siento
E|--------|--------|--------|-----92-|
A|--2-2-2-|-626--6-|-767--7-|-979----|
D|-----4--|-----8--|-----9--|--------|
G|--------|--------|--------|--------|

E|--------|----6--|----7--|--------------|
A|--2-2-2-|-6-6-6-|-7-7-7-|--9h11--9h11--|
D|-----4--|-------|-------|-11h13-11h13--|
G|--------|-------|-------|--------------|
Calificar esta versión:
Aviso: Este fichero es trabajo propio de su transcriptor y representa su interpretación personal de la canción. El material contenido en esta página es para exclusivo uso privado, por lo que se prohibe su reproducción o retransmisión, así como su uso para fines comerciales.
Más versiones de Siento Que Te Quiero, Zacarias Ferreira
Siento Que Te Quiero
tablatura
Siento Que Te Quiero
bajo
Descubre más canciones de Zacarias Ferreira