Asi Fue, Yuridia (tablatura)

Autor: Anónimo | 34874 visualizaciones

Esta cancion va dedicado al amor de mi vida y a la cual le
gusta mucho como canta yuridia, a Berenice, ¡TE AMO BEBE!

Se baja la guitarra 1/2 tono para q se escuche bien

INTRO
D-E-F#m-E-A
---5-5-5-5-4----------------|------------|-------------
-2-----------7-5-5-5-2-5-7-7|--2--7-7-2-5|--2--7-7-2-5-
----------------------------|------------|-------------
----------------------------|------------|-------------
----------------------------|------------|-------------
----------------------------|------------|-------------



A
PERDONA SI TE HAGO LLORAR
Bm
PERDONA SI TE HAGO SUFRIR
      E                    D
PERO ESQUE NO ESTA EN MIS MANOS
      E                     D
PERO ESQUE NO ESTA EN MIS MANOS
        A             F#           E
ME ENAMORADO, ME ENAMORADO, ME ENAMORE


A
PERDONA SI TE CAUSO DOLOR
    Bm
PERDONA SI TE DIGO ADIOS
 E                  D
COMO DECIRLE QUE TE AMO
  E                  D
COMO DECIRLE QUE TE AMO
              F#m
SI ME HA PREGUNTADO
                A                 E
YO LE DIJE QUE NO, YO LE DIJE QUE NO


A
SOY ONESTO CON ELLA Y CONTIGO
          Bm
A ELLA LA AMO Y A TI TE OLVIDADO
       E
SI TU QUIERES SEREMOS AMIGOS
        D
YO TE AYUDO A OLVIDAR EL PASADO
        F#                A
NO TE AFERRES, YA NO TE AFERRES
         E                D
A UN IMPOSIBLE, YA NO TE AMO
                 E           D
NI ME HAGAS MAS DAÑO,    YA  NO


 A
TU BIEN SABES QUE NO FUE MI CULPA
  Bm
TU TE FUISTE SIN DECIRME NADA
      E
Y A PESAR QUE LLORE COMO NUNCA
         D
YA NO SEGUIA DE MI ENAMORADA
           F#                 A
LUEGO TE FUISTE, Y QUE REGRESABAS
        E               D
NO ME DIJISTE Y SIN MAS NADA
         E              D
PORQUE NO SE, PERO FUE ASI
     A
ASI FUE


A
TE BRINDE LA MEJOR DE LAS SUERTES
         Bm
YO ME PROPUSE NO HABLARTE Y NO VERTE
                E
Y HOY QUE HAS VUELTO YA DE ESO NO HAY NADA
      D
YA NO DEBO NO PUEDO QUERERTE
         F#m            A
YA NO TE AMO, ME ENAMORADO
            E                D
DE UN SER DIVINO DE UN BUEN AMOR
           E         D             A
QUE ME ENSEÑO, A OLVIDAR  Y A PERDONAR

SOLO DEL FINAL
-14-12------------14-14-------------14-12---------------
-------15-14--15---------15--17--15-------15--14-15-----
--------------------------------------------------------
--------------------------------------------------------
--------------------------------------------------------
--------------------------------------------------------
---14--14---14-14---14-14----14-14----14-14-12---14-14-12
-15---15--15------15------15-------15----------15--------
---------------------------------------------------------
---------------------------------------------------------
---------------------------------------------------------
---------------------------------------------------------

-----14-14-14-12-----------------------------------------
-15------------------------------------------------------
---------------------------------------------------------
---------------------------------------------------------
---------------------------------------------------------
---------------------------------------------------------

Segun yo esta bien la tablatuara aunq se me movieron algunos
detalles al pasarla, si por algo estuviera mal,yo despues se
las mando la buena aunq creo q ya esta arreglado.
Calificar esta versión:
Aviso: Este fichero es trabajo propio de su transcriptor y representa su interpretación personal de la canción. El material contenido en esta página es para exclusivo uso privado, por lo que se prohibe su reproducción o retransmisión, así como su uso para fines comerciales.
Más versiones de Asi Fue, Yuridia
Asi Fue
acordes
Asi Fue
tablatura
Descubre más canciones de Yuridia