El, Yndio (bajo)

Autor: Anónimo | 38583 visualizaciones



            INTRO  X2 VECES
G|----------------|------------------|
D|----------------|------------------|
A|-5--4-5-4-2--2-2|------------------|
E|----------------|-3--3-3-2-3-5--5-5|

      LUEGO VA ESTA PARTE
G|------|--------|
D|------|--------|
A|------|-0-2-4-5|
E|-5-5-5|--------|

     AQUI INICIA LA LETRA
G|----------------|------------------|
D|----------------|------------------|
A|-5--4-5-4-2--2-2|------------------|
E|----------------|-3--3-3-2-3-5--5-5|

G|----------------|------------------|
D|----------------|------------------|
A|-5--4-5-4-2--2-2|------------------|
E|----------------|-3--3-3-2-3-5--5-5|

G|----------------|------------------|
D|----------------|------------------|
A|---5--5-5-2--2-2|------------------|
E|----------------|-3--3-3-2-3-5--5-5|

G|----------------|------------------|
D|----------------|------------------|
A|---5--5-5-2--2-2|------------------|
E|----------------|-3--3-3-2-3-5--5-5|

      ESTO SE REPITE TODA LA CANCION
G|----------------|------------------|
D|----------------|------------------|
A|---5--5-5-2--2-2|------------------|
E|----------------|-3--3-3-2-3-5--5-5|

Y EL FINAL TERMINA COMO EL INTRO
G|----------------|------------------|
D|----------------|------------------|
A|-5--4-5-4-2--2-2|------------------|
E|----------------|-3--3-3-2-3-5--5-5|

G|------|--------|
D|------|--------|
A|------|-0-2-4-5|
E|-5-5-5|--------|

OPINIONES O DUDAS A:Miguel_banda123@hotmail.co





Calificar esta versión:
Aviso: Este fichero es trabajo propio de su transcriptor y representa su interpretación personal de la canción. El material contenido en esta página es para exclusivo uso privado, por lo que se prohibe su reproducción o retransmisión, así como su uso para fines comerciales.
Más versiones de El, Yndio
El
acordes
El (ver 2)
acordes
El
tablatura
El
bajo
Descubre más canciones de Yndio