Mood For A Day, Yes (tablatura)

Autor: Ajel | 18975 visualizaciones



Mood For A Day

Riff 1                          Riff 1*
E |---3333—2---3333—2---3333---|---0000---|
A |---5555—4---5555—4---5555---|---4444---|
D |---5555—4---5555—4---5555---|---4444---|
G |---4444—3---4444—3---4444---|---3333---|
B |---3333—2---3333—2---3333---|---2222---|
e |---3333—2---3333—2---3333---|---0000---|

E |----------------2222-------------------|Riff
A |----------------2222---0---------------|2
D |---4-5----------4444-------------------|
G |------3-4-------4444---------------2---|
B |---------2-3----3333---2-3---3^2^0-----|       e |------------3---2222-------0-----------|

E |---3-----2---------------|Riff
A |---------------2-----1---|3
D |-------------------------|
G |-------------------------|
B |---3-2-0-2-3---3-2-0-2---|
e |-------------0-----------|

E |----------------2222---------------------|Riff
A |----------------2222---------------------|4
D |---4-5----------4444---0-----------------|
G |------3-4-------4444-----------------2---|
B |---------2-3----3333-----------3^2^0-----|
e |------------3---2222---2-4^2^0-----------|

Se repite Riff 3 
E |---------------------------------4-5-2^3^2^3--|
A |--------------------------4-5-2-4-------------|
D |---4-5-------------4-5-2-4--------------------|
G |------3-4-------3-4---------------------------|
B |---------2-3-0-2------------------------------|
e |----------------------------------------------|

Riff 5                                 1part 2part
E |-------------0---------|-3----------|-----|---|
A |-----------------------|------------|-----|---|
D |---0-------4---------4-|------------|--0--|---|
G |--------2-1-------2-1--|------2-0-2-|-2-2-|-7-|
B |---3-2-0-----3-2-0-----|-3-2-0-----0|-----|--7| 
e |-----------------------|------------|-----|---|
Riff 6
E |---3-------------------3---|-------------|
A |---------------------2-2---|---1-3-1-4---|
D |--------4-2-4-----0^2--0---|---0-2-0-2---|
G |---4-2-0-----0-0^2-----0---|-------------|
B |-----------------------0---|-------------|
e |-----------------------0---|-------------|

Se repite Riff 5 con la 2 part y Riff 6 y luego sigue

E |--------------------------------3-2---|
A |---------------------------3-1-0------|
D |----------------------3-2-0-----------|
G |---------------5-3-2-0----------------|
B |----------6-5-3-----------------------|
e |---5-3-5-3----------------------------|

Riff 7
E |------------------------|
A |-----------------0------|
D |-------2---0------------|y se repite
G |------------------------|Riff 3
B |---------------3-2-3----|
e |---2-4-5-4-2-0------0---|

Luego otra vez Riff 7 y Riff 3 pero a esta se le aumenta

E |----------------------------|
A |----------------------------|
D |-----4-----2----------------|
G |---------------4-----3333---|
B |---3-3-2-0-2-3-3-2-0-2222---|
e |----0---------0-------------|

Riff 8
E |-------------------------9 -------------------|
A |----------------------------------------------|
D |-------2-----5----------------0 --------------|
G |----------------------------------------------|
B |----------------------------------------------|
e |---2-4-5-4-5-7-5-7/12121212-12-10-9-14-12-10--|

Riff 9
E |-----------------------|
A |-----------------------|
D |---6 -----7------5-----|
G |-----------------------|
B |--------------10-----8-|
e |---10-9-7-9-7----7-5---|

Riff 10
E |--------------------------------|
A |--------------------------------|
D |---0----------------------------|x3
G |-------------2--0---------4-4---|
B |------------3-3----------3-3----|
e |---5^4^3^2^0----5^4^3^2^0-------|

Se toca Riff 1* varias veces y luego

E |---2-3----------|
A |------0-2-4-5---|
D |----------------| y luego Riff 2, Riff 3
G |----------------| Riff 4 y Riff 3
B |----------------|
e |----------------|

E |----------------2222------------------------|
A |----------------2222------------------------|
D |---4-5----------4444---4--------------------|
G |------3-4-------4444------------------------|
B |---------2-3----3333------------------------|
e |------------3---2222---2-3-4-5-6-7-8-9-10---|

Y luego Riff 3, Riff 7 y Riff 3, Riff 7 y      Riff 3 x2, y luego Riff 8 y Riff 9, después    Riff 10 una vez y luego

E |----------------------------------|
A |----------------------------------|
D |---0------------------------------| 
G |-------------2--0 ----------4-4---|
B |------------3-3--------------3----|
e |---5^4^3^2^0----10^9^8^7^0-3------|


E |-------------------------------------------|
A |-------------------------------------------|
D |---0-------------------------------4^2^0---|
G |-------------2--0-------------4^2^0--------|
B |------------3-3----------3^2^0-------------|
e |---5^4^3^2^0----5^4^3^2^0------------------|

E |-------------h2---|
A |---2--------------|
D |-----0------------|
G |-------2----------|
B |---------3--------|
e |------------------|

















Comentarios del colaborador: Para los conocedores de rock progresivo esta canción me la enseño mi jefe y la pase a tablatura, para los que la conozcan espero que les guste, cualquier duda abuelo_universo@hotmail.com

Calificar esta versión:
Aviso: Este fichero es trabajo propio de su transcriptor y representa su interpretación personal de la canción. El material contenido en esta página es para exclusivo uso privado, por lo que se prohibe su reproducción o retransmisión, así como su uso para fines comerciales.
Más versiones de Mood For A Day, Yes
Mood For A Day
tablatura
Mood For A Day (ver 2)
tablatura
Descubre más canciones de Yes