Way Away, Yellowcard (tablatura) (ver 2)

Autor: frankyer96 | 41842 visualizaciones

GUITAR 2
                               
Intro X2
e|---------------------------------------------------------------------------|
B|---------------------------------------------------------------------------|
G|---0---2---0---2---0---2---0----0---2---0---3---2---0----------------------|
D|-0---0---0---0---0---0---0------------------------------3------------------|
A|------------------------------1---1---1---1---1---1---1--------------------|
D|---------------------------------------------------------------------------|


Intro Cont'd  X2
e|---------------------------------------------------------------------------|
B|---------------------------------------------------------------------------|
G|-12-12-14-12-14-12-14-12-12-12-12-12-14-12-15-14-12-10--10--10-------------|
D|---------------------------------------------------------------------------|
A|-10-10-12-10-12-10-12-10-10-10-10-10-12-10-13-12-10-8---8---8--------------|
D|---------------------------------------------------------------------------|


Verse: "I think I'm breaking out.." (It's hard to hear but just do some picking
stuff with this chord)
e|-5-------------------------------------------------------------------------|
B|-6-------------------------------------------------------------------------|
G|-7-------------------------------------------------------------------------|
D|-7-------------------------------------------------------------------------|
A|-5-------------------------------------------------------------------------|
D|---------------------------------------------------------------------------|


Verse Cont'd
e|---------------------------------------------------------------------------|
B|---------------------------------------------------------------------------|
G|---------------------------------------------------------------------------|
D|-3-3-3-3-3-3-2-2-2-2-2-2---------------------------------------------------|
A|-3-3-3-3-3-3-3-3-3-3-3-3---------------------------------------------------|
D|-3-3-3-3-3-3-2-2-2-2-2-2---------------------------------------------------|


Chorus: (Same as Guitar 1)


Repeat second Part of Intro


Repeat Verse


Pre-Chorus: (Same as Guitar 1)


Chorus: (Same as Guitar 1)


Bridge: ( It's hard to make out what he's playin', but I think it goes like thi
s)   X5
e|-----5----------5-----------5--8-----5-5--8--------------------------------|
B|-------5-6--------5-6-------------6----------------------------------------|
G|--7---------7-7--------7-7-------------------------------------------------|
D|---------------------------------------------------------------------------|
A|---------------------------------------------------------------------------|
D|---------------------------------------------------------------------------|


Breakdown:
e|---------------------------------------------------------------------------|
B|---------------------------------------------------------------------------|
G|-7-7-7-7-9-9-9-9-10-10-10-10-12-12-12-12-12--------------------------------|
D|---------------------------------------------------------------------------|
A|-5-5-5-5-7-7-7-7-8--8--8--8--10-10-10-10-10--------------------------------|
D|---------------------------------------------------------------------------|

e|---------------------------------------------------------------------------|
X4
B|---------------------------------------------------------------------------|
G|---------------------------------------------------------------------------|
D|-7-7-7-7-7-7-7-7-7-7-7-7-7-7-7-7-------------------------------------------|
A|-7-7-7-7-7-7-7-7-7-7-7-7-7-7-7-7-------------------------------------------|
D|-7-7-7-7-7-7-7-7-7-7-7-7-7-7-7-7-------------------------------------------|


Breakdown Cont'd:
e|---------------------------------------------------------------------------|
B|---------------------------------------------------------------------------|
G|---------------------------------------------------------------------------|
D|-7-7-7-7-7-7-7-7-7-7-7-7-7-7-7-7-0-0---------------------------------------|
A|-7-7-7-7-7-7-7-7-7-7-7-7-7-7-7-7-0-0---------------------------------------|
D|-7-7-7-7-7-7-7-7-7-7-7-7-7-7-7-7-0-0---------------------------------------|


Repeat Chorus: (Start on second chord)
Calificar esta versión:
Aviso: Este fichero es trabajo propio de su transcriptor y representa su interpretación personal de la canción. El material contenido en esta página es para exclusivo uso privado, por lo que se prohibe su reproducción o retransmisión, así como su uso para fines comerciales.
Más versiones de Way Away, Yellowcard
Way Away
tablatura
Way Away (ver 2)
tablatura
Descubre más canciones de Yellowcard