Maps, Yeah Yeah Yeahs (tablatura)

Autor: aori_moni | 39004 visualizaciones

(esta parte va hasta que la chava empieza a cantar)
e|-10-10-10-10-10-10-10-10-10-10-10-10-10-10-10-10-10-10-10-10-10-10-10----|
B|--------------------------------------------------------------------------|
G|--------------------------------------------------------------------------|
D|--------------------------------------------------------------------------|
A|--------------------------------------------------------------------------|
E|--------------------------------------------------------------------------|

(esta parte va tambien en el coro pero un poco mas rápido y en la segunda parte despues del coro )
e|-7-7-7-7-3-3-3-3/-7-7-7-7-10-10-10-10------------------------------------|
B|--------------------------------------------------------------------------|
G|--------------------------------------------------------------------------|
D|--------------------------------------------------------------------------|
A|--------------------------------------------------------------------------|
E|--------------------------------------------------------------------------|

e|-7-7-7-7-3-3-3-3/-12-12-12-12-15-15-15-15--------------------------------|
B|--------------------------------------------------------------------------|
G|--------------------------------------------------------------------------|
D|--------------------------------------------------------------------------|
A|--------------------------------------------------------------------------|
E|--------------------------------------------------------------------------|

e|-19-19-19-17-15-15-15-15-12-12-12-12-12-15-15-15-15-----------------------|
B|--------------------------------------------------------------------------|
G|--------------------------------------------------------------------------|
D|--------------------------------------------------------------------------|
A|--------------------------------------------------------------------------|
E|--------------------------------------------------------------------------|

(esto tambien se repite al final de la cancion)
e|--------------------------------------------------------------------------|
B|--------------------------------------------------------------------------|
G|--------------------------------------------------------------------------|
D|-x-17-17-17-16-17-17-16-x-5-5-5-5-7-7-7-----------------------------------|
A|--------------------------------------------------------------------------|
E|-x-15-15-15-14-15-15-14-x-3-3-3-3-5-5-5-----------------------------------|
 |                           (1st ending)    (2nd ending)                   |
e|------------------------|-----------------|-------------------------------|
B|------------------------|-----------------|-------------------------------|
G|------------------------|-----------------|-------------------------------|
D|-x-17-17-17-16-21-21-19-|-x-5-5-5-5-7-7-7-|-1917-17-5-5-5---------------|
A|------------------------|-----------------|-------------------------------|
E|-x-15-15-15-14-19-19-17-|-x-3-3-3-3-5-5-5-|-1715-15-3-3-3---------------|

(these two parts are played at the same time)
e|---3-3-3-3-3-3-3-3-3-3-3-3-3----------------------------------------------|
B|--------------------------------------------------------------------------|
G|--0-0-0-0-0-0-0-0-0-0-0-0-0-----------------------------------------------|
D|--------------------------------------------------------------------------|
A|--------------------------------------------------------------------------|
E|--------------------------------------------------------------------------|
 |                                                                          |
e|--------------------------------------------------------------------------|
B|--------------------------------------------------------------------------|
G|--------------------------------------------------------------------------|
D|--5--2--0-----2-5-----5--2--0-----2-5-------------------------------------|
A|--------------------------------------------------------------------------|
E|-----------3-------------------3------------------------------------------|


| /  slide up
|   slide down
| h  hammer-on
| p  pull-off
| ~  vibrato
| +  harmonic
| x  Mute note
Calificar esta versión:
Aviso: Este fichero es trabajo propio de su transcriptor y representa su interpretación personal de la canción. El material contenido en esta página es para exclusivo uso privado, por lo que se prohibe su reproducción o retransmisión, así como su uso para fines comerciales.
Más versiones de Maps, Yeah Yeah Yeahs
Maps
tablatura
Maps (ver 2)
tablatura
Descubre más canciones de Yeah Yeah Yeahs