Ven A Bailar, Yamana (tablatura)

Autor: Anónimo | 16730 visualizaciones

En la canción utilizan una guitarra con unos arreglos y una guitarra
pequeñita: no se si requinto o charango o que… pero esta es una versión
inventada por mi que intenta unir los dos en una guitarra convencional.
Es ideal para tocar junto con otra guitarra que rasguee los acordes
normalmente (me ha servido para tocar entre amigos). Es bastante difícil
pero vale la pena el tiempo de práctica, la canción es excelente.
Buena suerte, espero que sea útil.  


e|--15-15--|---14-14--|---12-12---12-12--|--14-15-17^^^^^^^^^^----------|
B|--15-15--|---15-15--|---13-13---13-13--|--15-17-15^^^^^^^^^^----------|
G|---------|----------|------------------|------------------------------|
D|---------|----------|------------------|------------------------------|
A|---------|----------|------------------|------------------------------|
E|---------|----------|------------------|------------------------------|


e|-7-7-7-8--10-8--7------|--------------------|--7-7-7-8--10-8-7--------|
B|-8-8-8-10-12-10-8-10-7-|-8---8/9-/10----10--|--8-8-8-10-12-10-8-10-7--|
G|------------------11-8-|-9---9/10/11----11--|-------------------11-8--|
D|-----------------------|---10--------12-----|-------------------------|
A|-----------------------|--------------------|-------------------------|
E|-----------------------|--------------------|-------------------------|


e|----------------------|------10-15-----10-15-----10-15-----10-15------|
B|-8---8/9-/10-------10-|----12--------12--------12--------12-----------|
G|-9---9/10/11------11--|--12--------12--------12--------12-------------|
D|---10--------12--12---|-----------------------------------------------|
A|----------------------|-----------------------------------------------|
E|----------------------|-----------------------------------------------|
                           P i  m a  ---->

   C10---------------------------------------¬ C8------------------------¬
e|-------10-14-----10-14-----10-14-----10-14------8-12---8-12---8-12----|
B|-----10--------10--------10--------10----------8------8------8--------|
G|---11--------11--------11--------11-----------9------9------9---------|
D|----------------------------------------------------------------------|
A|----------------------------------------------------------------------|
E|----------------------------------------------------------------------|
     P i  m a  ---->

                          Rasgueado----------------------¬
  C8------¬     C10----¬                    C9 y C12--¬       C10-----¬
e|----8-12--12-12--10-10-|--15----------14----------12---12-12--10-10---|
B|---8------13-13--10-10-|--12----------12----------12---13-13--10-10---|
G|--9--------------11-11-|--0-----------11----------9-----------11-11---|
D|-----------------------|--12----------12----------9-------------------|
A|-----------------------|----------------------------------------------|
E|-----------------------|----------------------------------------------|


   Rasgueado--------------------------¬
e|--15----------14--------12-----14----15----|    De ahí todo esta
B|--12----------12--------8------10----0-----|    tabulado
G|--0-----------11--------9------11----0-----|    p=pulgar
D|--12----------12--------10-----12----0-----|    i=índice
A|-------------------------------------------|    m=medio
E|-------------------------------------------|    a=anular    C=cejilla
Calificar esta versión:
Aviso: Este fichero es trabajo propio de su transcriptor y representa su interpretación personal de la canción. El material contenido en esta página es para exclusivo uso privado, por lo que se prohibe su reproducción o retransmisión, así como su uso para fines comerciales.
Más versiones de Ven A Bailar, Yamana
Ven A Bailar
acordes
Ven A Bailar (ver 2)
acordes
Ven A Bailar
tablatura
Descubre más canciones de Yamana