Sin Tu Amor, William Luna (acordes)

Autor: linkins | 44654 visualizaciones

dofalammimremsol


La introduccion original es con una quena,
pero si le pones feeling...sonara igual con la guitarra,
espero disfruten este tema por que a mi me rompe el 
corazon......mujeres  ¡que seriamos sin ellas!


Intro:

e:----------------------3----------|
B:------5555-3--5--5555---5--------|
G:---------------------------------|    
D:---------------------------------|
A:---------------------------------|
E:---------------------------------| 


e:------12--10-8888-7—8—8--10------|
B:---------------------------------|
G:----------------------------9----|    
D:---------------------------------|
A:---------------------------------|
E:---------------------------------| 


e:------12121212--10-12------------|
B:---------------------------------|
G:---------------------------------|    
D:---------------------------------|
A:---------------------------------|
E:---------------------------------| 

e:------12--10-8888-7—8—8--10-7h3--|
B:---------------------------------|
G:---------------------------------|    
D:---------------------------------|
A:---------------------------------|
E:---------------------------------| 

Shalalalalala shalalalalala  lalalalalalalala  lalala [bis] 
Do               Min                       Lam               Mim
Estos dias ya estas lejos de aquí no volveras
           Do               Min      Lam            Mim
A mi por que te iras lejos de aquí me olvidaras
Lam                  Min               Fa              Sol 
De seguro  en tu ausencia extrañare tu presencia
        Do                 Min           Lam             Mim
Te buscare y gritare que con el tiempo te olvidare
           Lam      Min                  Fa                 Sol 
Por  que se que no volveras por que se que no estaras
              Do                                      Min     

Cuando te busque  en mi  soledad tu no estaras
                 Lam                                       Min  

Me dejaraaaaaaaas  sin tu  amooooooor
                Fa                          Do
Sin tu  amooooooor  Sin tu  amooooooor
                 Fa                              Do 
Sin tu  amooooooor  es muy difícil vivir
   Fa                         Rem  Sol 
Sin tu amor sin tu amor alguien tomara tu lugar
           Min             Lam           Fa                 Mim

De seguro me hara olvidar
         Fa                       Sol   

[Repètir coro]

7h3 = jalar  de la 7 a la 3
los acordes se han movido al insertalo en la pagina de atame
escuchen la cancion.  
cualquier duda critica sugerencia escribanme a mi correo. Su servidor Efraín
saludos a todas las fans de willian

 





Comentarios del colaborador: espero que les guste esta rola bye bye...

Calificar esta versión:
Aviso: Este fichero es trabajo propio de su transcriptor y representa su interpretación personal de la canción. El material contenido en esta página es para exclusivo uso privado, por lo que se prohibe su reproducción o retransmisión, así como su uso para fines comerciales.
Más versiones de Sin Tu Amor, William Luna
Sin Tu Amor
acordes
Sin Tu Amor
tablatura
Descubre más canciones de William Luna