Que Necesitas?, Wdk (tablatura)

Autor: Anónimo | 23781 visualizaciones

  Acordes Principales
e|--------------|
B|--------------|
G|--4-----------|
D|--4--6--2--4--|
A|--2--6--2--4--|
E|-----4--0--2--|


PUNTEOS: (Trompetas)

  INTRO
e|---------2-4-2--------------------|
B|-------4-------4--2-0-------------|
G|--4--4----------------1--1--------|
D|---------------------------1-2-4--|
A|----------------------------------|

e|---------2-4-2--------------------|
B|-------4-------4--2-0-------------|
G|--4--4----------------1-1----[4-3]|
D|--------------------------(1)-----| (?)
A|----------------------------------|
  [] se repite varias veces al final


 BRIDGE
e |--------2-2---4-444--2---2------------------------------------|
B |------4-----4----------4---4----4-4-2---4-2----4-4-2---4-3-2--|
G |--4-4---------------------------------4--------------4--------|
D |--------------------------------------------------------------|
A |--------------------------------------------------------------|
E |--------------------------------------------------------------|

Trompetas
e |---------------77---------777--|
B |--------44---77--------777-----|
G |--4~--44------------555--------|
D |-------------------------------|
A |-------------------------------|
E |-------------------------------|



LETRA
=====

Este que ves
Este soy yo
Que necesitas de mi

Me ves asi
Siempre feliz
Que necesitas de mi

Sin rumbo voy
A donde hoy
Seguro no vas a ir

Te reis de mi
Y yo de vos
No nos vamos a entender jamas

Un tiempo atras
Casi olvide
Que me hiciste un poco bien

Te fuiste con el
Yo lo respete
Era cuestion de esperar

Te-un año mas de soledad
Uno se acostumbra y va 
A solventar ese dolor

Con otras opciones que hay
Con otras opciones que hay

Que te extrañe
Eso es verdad
Pero me ayudo a entender

Que si no estas
Es porque vos
A mi no me mereces

Te conoci
Y me enamore
Casi instantaneamente

Pero sabes
Que tengo razon
NO NOS VAMOS A ENTENDER JAMAS

NO NOS VAMOS A ENTENDER JAMAS
NO NOS VAMOS A ENTENDER JAMAS
NO NOS VAMOS A ENTENDER JAMAS

------------------------=====================------------------------
                         jdcm182@hotmail.com
------------------------=====================------------------------
Tabs subidos hasta la fecha de publicacion:

- CADENA PERPETUA - SIGO ACA
- WDK - CIUDAD CENTRAL
- WDK - QUE NECESITAS?
- EL OTRO YO - INMADURO
- SMITTEN - INTENTO

------------------------=====================------------------------
Calificar esta versión:
Aviso: Este fichero es trabajo propio de su transcriptor y representa su interpretación personal de la canción. El material contenido en esta página es para exclusivo uso privado, por lo que se prohibe su reproducción o retransmisión, así como su uso para fines comerciales.