Aquí Estas, Way Maker (tablatura)

Autor: KeybingAlaniz | 3302 visualizaciones

E|---------------------------------------------------------------------
B|-------------------6--3-----------------------------------3-3s5
G|-2h3-3----3-5------5-3-5-3---------------3-3s5-----
D|---------------------------------------5--3-3s5---------------
A|---------------------------------------------------------------------
E|---------------------------------------------------------------------


E|-6-8-10-7--6-8S10-----------------------------------
B|----------------------------6-8S10-----------------------
G|---------------------------------------7-8S10--8-7-5-
D|--------------------------------------------------------------
A|-------------------------------------------------------------
E|--------------------------------------------------------------




E|---------------------------------------------------------------- B|-4-3-----------------------------6-S11-(11-10--)x4 G|------5-3-5-3---------3-5-7-----------(-------12-)×4-10 D|------------------5-3-5-------------------------------------- A|---------------------------------------------------------------- E|----------------------------------------------------------------- E|----------10-11-10-------------------------------------------- B|-11-13---------------6-8-6----------------------------------6 G|----------------------------------7-5-3-5-3---------3-5S7- D|------------------------------------------------5-3-5----------- A|-------------------------------------------------------------------- E|------------------------------------------------------------------- E|-6-8S-10(×4)-8-6----------------------------------------- B|------------------------------------------------------------------- G|----------------------------5-7-8--7-5-3--------------------- D|-------------------------------------------------3-5------------- A|-------------------------------------------------------------------- E|--------------------------------------------------------------------

Comentarios del colaborador: el solo de la canción escuchela bien ahí está calificala esta 100%original

Calificar esta versión:
Aviso: Este fichero es trabajo propio de su transcriptor y representa su interpretación personal de la canción. El material contenido en esta página es para exclusivo uso privado, por lo que se prohibe su reproducción o retransmisión, así como su uso para fines comerciales.
Más versiones de Aquí Estas, Way Maker
Aquí Estas
acordes
Aquí Estas
tablatura
Descubre más canciones de Way Maker